Song name
# A B C D E F G H I J K L M N O P Q R S T U V W X Y Z

Tronic - Hoy tab

INTRO

/Slide

|--------------------------------------------------|
|------3-----------------3/5-----------------------|
|---------4-4--2--0-0---------5--4--2--0-----------|
|--------------------------------------------------|
|--------------------------------------------------|
|--------------------------------------------------|

|--------------------------------------------------|
|-------3------------------------------------------|
|---------4-4--2--000000--5555-4444----------------|
|--------------------------------------------------|
|--------------------------------------------------|
|--------------------------------------------------|

Verso P.M.
Hoy TRatamos de entendere........
|--------------------------------------------------|
|--------------------------------------------------|
|-------------5------7-----------------------------|
|---5---------5------7-----------------------------|
|---5---------3x8----5x8---------------------------|
|---3x16-------------------------------------------|
Por que llorar nos ase bien...
|--------------------------------------------------|
|--------------------------------------------------|
|-------------5------7-----------------------------|
|---5---------5------7-----------------------------|
|---5---------3x4----5x4---------------------------|
|---3x16-------------------------------------------|


Se repite intro
|--------------------------------------------------|
|------3-----------------3/5-----------------------|
|---------4-4--2--0-0---------5--4--2--0-----------|
|--------------------------------------------------|
|--------------------------------------------------|
|--------------------------------------------------|

|--------------------------------------------------|
|-------3------------------------------------------|
|---------4-4--2--000000--5555-4444----------------|
|--------------------------------------------------|
|--------------------------------------------------|
|--------------------------------------------------|

Verso 2
Verso P.M.
Hoy tratamos de entender....
|--------------------------------------------------|
|--------------------------------------------------|
|-------------5------7-----------------------------|
|---5---------5------7-----------------------------|
|---5---------3x8----5x8---------------------------|
|---3x16-------------------------------------------|

Y el que se quiere ver mejor....
|--------------------------------------------------|
|--------------------------------------------------|
|-------------5------7-----------------------------|
|---5---------5------7-----------------------------|
|---5---------3x4----5x4---------------------------|
|---3x16-------------------------------------------|



Pre-coro   (No puedo creer)
|---------------------|
|---------------------|
|-------5----7----7---|
|---2---5----7----5---|
|---2---3----5----5---|
|---0-----------------|(x2)

Coro 
El coro es lo mismo que el verso solo que sin P.M.

      Mama llegue....
|--------------------------|
|--------------------------|
|-------------5------7-----|
|---5---------5------7-----|
|---5---------3x8----5x8---|
|---3x16-------------------|

|--------------------------|
|--------------------------|
|-------------5------7-----|
|---5---------5------7-----|
|---5---------3x8----5x8---|
|---3x16-------------------|

|--------------------------|
|--------------------------|
|-------------5------------|
|---5---------5------------|
|---5---------3x8----------|
|---3x16-------------------|Se deja un silendio para 
                     (que tengo a quien querer)

Se repite intro Otra ves
|--------------------------------------------------|
|------3-----------------3/5-----------------------|
|---------4-4--2--0-0---------5--4--2--0-----------|
|--------------------------------------------------|
|--------------------------------------------------|
|--------------------------------------------------|

|--------------------------------------------------|
|-------3------------------------------------------|
|---------4-4--2--000000--5555-4444----------------|
|--------------------------------------------------|
|--------------------------------------------------|
|--------------------------------------------------|


La parte de aqui es lo el bajo 


Pre-coro (No puedo creer)
|---------------------|
|---------------------|
|-------5----7----7---|
|---2---5----7----5---|
|---2---3----5----5---|
|---0-----------------|(x2)

Coro

     Mama llegue.....
|--------------------------|
|--------------------------|
|-------------5------7-----|
|---5---------5------7-----|
|---5---------3x8----5x8---|
|---3x16-------------------|

|--------------------------|
|--------------------------|
|-------------5------7-----|
|---5---------5------7-----|
|---5---------3x8----5x8---|
|---3x16-------------------|

Solo o outro
La segunda guitarra sigue asiendo lo mismo del coro
|------------------------------------------------------------------|
|-8-8-7-7-----7-7-8-8-7-7----7-7-8-8-----7-7-8-8-7-7-10-10-7-7-----|
|---------7-7------------7-7---------7-7---------------------------|
|------------------------------------------------------------------|
|------------------------------------------------------------------|
|------------------------------------------------------------------|X2
asi suena mejor pero lo pueden simplificar y solo aser de uno por numero 
ose queda asi

--------------------------------------|
2da--8-7---7-8-7--7-8---7-8-7-10-7----|
3ra------7-------7----7---------------|
--------------------------------------|

terminen con un 7 en si (segunda cuerda ) y dejen sonar
Tap to rate this tab
 
# A B C D E F G H I J K L M N O P Q R S T U V W X Y Z