Song name
# A B C D E F G H I J K L M N O P Q R S T U V W X Y Z

Trools And Orgi-e - Inden Det Forsent tab

Troo.l.s & Orgi-E
Inden Det Forsent
tabbed by Baggene


Riff 1:
Am

e------------------------|
b------------------------|
g----------4/5/4---------|
d--------7-------7-------|
a------7-----------7-----|
e----5-------------------|


Riff 2:

Dm

e------------------------|
b----------5/6/5---5-----|
g--------7-------7-------|
d------7-----------------|
a----5-------------------|
e------------------------|
Tap to rate this tab
# A B C D E F G H I J K L M N O P Q R S T U V W X Y Z