Song name
# A B C D E F G H I J K L M N O P Q R S T U V W X Y Z

Trooper - The Best Way To Hold A Man tab

Song: The Best Way To Hold A Man
Words & Music by Trooper

Chords:
     D     Bm    G    Am7
E|---2--|--2--|--3--|--0--|
B|---3--|--3--|--0--|--1--|
G|---2--|--4--|--0--|--0--|
D|---0--|--4--|--0--|--2--|
A|------|--2--|--2--|--0--|
E|------|-----|--3--|-----|

Dropped D Tuning, (Although I think it was the bar dive
that made it sound like a Dropped D?)
Intro: D
 w/distortion                       Bar dive
E|----|--------------------------|----------|
B|----|--------------------------|----------|
G|----|--------------------------|----------|
D|----|--------------------7-----|----------|
A|--0-|-7--5-5--0-/-7--5-5-------|----------|
D|----|-----------------------0--|--0|\-----|

D                    Bm
Don't you worry babe, there's nothing more to say
G                                                      D
How many times have I told you that you don't have to worry
D                         Bm
Yeah you don't have to be, so damn good to me
G                      D
And you don't have to worry

Chorus:
       D       Am7           G
E|----|------------------------------------|
B|----|------------------------------------|
G|----|------------------------------------|
D|----|---------0-/-7--55------------7-----|
A|--0-|-7--55-------------0-/-7--55--------|
D|----|----------------------------------0-|

D
The best way to hold a man
Am7
Is in your heart
    G                  D     
So hold me, in your heart

Verse:
D                     Bm
There's a simple line, between yours and mine
G                                                   D
Nothing's going to change  my mind I never thought to leave you
D                    Bm 
Promises that we made goes the choice we take
G                    D
And I still believe you

Chorus:
       D       Am7           G
E|----|------------------------------------|
B|----|------------------------------------|
G|----|------------------------------------|
D|----|---------0-/-7--55------------7-----|
A|--0-|-7--55-------------0-/-7--55--------|
D|----|----------------------------------0-|

D
The best way to hold a man
Am7
Is in your heart
    G                  D     
So hold me, in your heart
D
The safest place to keep a man
Am7
Is in your arms
   G                 D
So keep me, in your arms
Tap to rate this tab
 
# A B C D E F G H I J K L M N O P Q R S T U V W X Y Z