Song name
# A B C D E F G H I J K L M N O P Q R S T U V W X Y Z

Trooper - Raise A Little Hell tab

Title:		Raise a Little Hell
Band:		Trooper
Tabbed by:	howie_carman

Please note: the **chorus(acapello)* means you do not play guitar during those bars, in 
someone doesn't know what acapello means (I dont't know if I spelled it right)
intro
----------------------------------------------------------------------|
----------------------------------------------------------------------|
--2-------------------------------2-----------------------------------|
--2-------------------------------2-----------------------------------|
--0-let ring----------------------0-----------------------------------|
----------------------------------------------------------------------|

*****************chorus(acapello)***************************

				lead over g5 chords (either slide or dive bomb)
---------------------------|-------------------------------------------|
---------------------------|-------------------------------------------|
---------------------------|---18\-------------------------------------|
--5--5-------5--5----------|---18\-------------------------------------|
--5--5-------5--5----------|-------------------------------------------|
--3--3-------3--3----------|-------------------------------------------|


Chorus- let all chords ring
------------3-----------------------------|
------------3--------3--------------------|
--2---------0--------2-----------2--------|
--2------------------4-----------2--------|
--0------------------0-----------0--------|
------------------------------------------|

verse mostly palm muted
------------------------------------------------------------------------------|
------------------------------------------------------------------------------|
------------------------------------------------------------------------------|
--2--2--4--2--2--4--------------------2--2--4--2--2--/4--2~--2--2--4--2--2--4-|
--0--0--0--0--0--0--5--5--7--5--5--7--0--0--0--0--0--/4--2~--0--0--0--0--0--0-|
--------------------3--3--3--3--3--3------------------------------------------|

------------------------------------------------------------------|
------------------------------------------------------------------|
--------------------------------------2~------2~------2~------2~--|
--2--2--4--2--2--4--------------------2~------2~------2~------2~--|
--0--0--0--0--0--0--5--5--7--5--5--7--0---3b------3b------3b------|
--------------------3--3--3--3--3--3------------------------------|


Interlude- let chords ring and listen to the song for timing
---------------------------3---|
----------------------3----3---|
--5------------2------2----0---|
--5------2-----2------0--------|
--3------2-----0---------------|
---------0---------------------|

------------------------|
------------------------|
--2--4--5--7--5--4--5~--|
------------------------|this note overlaps the first chord in the next section
------------------------|
------------------------|

---------------------------3---|
----------------------3----3---|
--5------------2------2----0---|
--5------2-----2------0--------|
--3------2-----0---------------|
---------0---------------------|

--------------------|
--------------------|
--2--4--5--7--5--4--|
--------------------|
--------------------|
--------------------|

Solo

------------------|
------------------|
------------------|
--5--5-----5--5---|
--5--5-----5--5---|
--3--3-----3--3---|
						x2
------------------------------------------------|
------------------------------------------------|
--2-ring---------------------------------7b9----|
--2-ring---0--2--4--5b---4--2--0--2b---------7--|
--0-ring-----------------------------0----------|
------------------------------------------------|

--------------------------|-----------------------------------------------------------|
----do this several times-|-----------------------------------------------------------|
--------------------------|-----------------------------------------------------------|
---5h7-7--5h7-7--5h7-7----|----7--5-----5---------------------------------------------|
--------------------------|----------9-----9--7--9--7--5--7--5-----5------------------|
--------------------------|-------------------------------------8-----8--7--8--7--5---|


--5---5~------------5----5~-------------------------------------------|
--8b--8b~--8b-p-5----8b---8b~---8b--p--5-----8b--8--5-----------------|
-----------------7------------------------7------------7b-r--5--------|
----------------------------------------------------------------7~----|
----------------------------------------------------------------------|
----------------------------------------------------------------------|

outro
------------------------------------------------------5--7--8--10--12--14b~--|
-----------------------------------------------------------------------------|
------------------7~--7p5---5~--7p5---/8-7~--7p5----5------------------------|
--5--5----5--5------------7---------7------------7---------------------------|
--5--5----5--5---------------------------------------------------------------|
--3--3----3--3---------------------------------------------------------------|

------|
------|
--2---|
--2---|
--0---|
------|

order:

intro
chorusx2
verse
chorusx2
verse
chorusx2
interlude
chorusx2
verse
chorusx2
*******chorus(acapello)x2
solo
*******chorus(acapello)
outro
Tap to rate this tab
 
# A B C D E F G H I J K L M N O P Q R S T U V W X Y Z