Song name
# A B C D E F G H I J K L M N O P Q R S T U V W X Y Z

Trophy Scars - Anxiety Anxieties tab

Song:Anxiety.Anxieties.
Album:Alphabet.Alphabets.
Band:Trophy Scars
Tabbed by:sevendayloss


Standard Tuning.
Played through a clean channel with reverb.


Gtr. 1

E--------------------------------------------------|
B-------------------2x------------------------2x---|
G------7-------0~--------------7--------0~---------| Repeat
D----------4------------------------4--------------|
A-------------------------5------------------------|
E--0-----------------------------------------------|

Gtr.2 (lead)

E--7\5---55-5/7--7/10--| 4x
B----------------------|
G----------------------|
D----------------------|
A----------------------|
E----------------------|


VERSE

Gtr.1
E---0-----0--|
B---0-----0--|
G---7-----0--|
D---x-----2--| Repeat
A---5-----2--|
E---0-----0--|

Gtr. 2 lead

E--555777101010----------------------|
B---------------------555777---------|
G---------------4x----------777---4x-|
D------------------------------------|  2x
A------------------------------------|
E------------------------------------|


E--141414x101010--141414xx101010--151515x1414xx10xx10--|
B------------------------------------------------------| 2x
G------------------------------------------------------|
D------------------------------------------------------|
A------------------------------------------------------|
E------------------------------------------------------|

Then repeat this ALOT of times just listen to the song for all the little slides and 
pickings.


E--555777101010----------------------|
B---------------------555777---------|
G---------------4x----------777---4x-|
D------------------------------------|  2x
A------------------------------------|
E------------------------------------|

This isnt really a tabbed out by note song, I just tabbed out the basis for the song, 
out every little different slide or different picking in every repeat would be unecessary, 
to the song for the strumming and different pickings of the leads.


enjoy dudes.
Tap to rate this tab
# A B C D E F G H I J K L M N O P Q R S T U V W X Y Z