Song name
# A B C D E F G H I J K L M N O P Q R S T U V W X Y Z

Tropian - Hellraiser tab

Band: Tropian
Song: Hellraiser
Album: Midnight Eye (Instrumental)
Date: 2011

.  - palm mute           /  - slide up to
\  - slide down to       ~  - vibrato
h  - hammer on           b  - Bend
p  - pull off            Suffixes for bend
t  - tap                 f  - full bend    h - half bend
ph - pinched harmonic    q  - quarter bend t - tap bend
*  - see comment         ^  - Hold bend    r release bend
x  - Stuccatto           ~  - vibrato bend
,  - slight palm mute    () - ghost note, sustained note
"  - tremolo note        <> - Trill

PART 1;Intro Chord

E-0----------|
B--0---------|
G---4--------|
D----2-------|
A-----2------|
E------0-----|
[Sweep down on this chord. Do not individually pick these notes]


Part 2; Intro riff
(Guitar 1;Lead)
E----------------------------------------------------------------------------|
B----------------------------------------------------------------------------|
G----------------------------------------------------------------------------|
D---------5---------------5--------------------------------------------------|
A-2-333-3---3-2-0-2-333-3---3-2-0--------------------------------------------|
E---------------------------------0-0-0-0-0-0-0-0-0-0-0-0-0-0-0-0------------|

(Guitar 2;Rhythm)
E----------------------------------------------------------------------------|
B----------------------------------------------------------------------------|
G-5--------------------------------------------------------------------------|
D-5-------------------------------2------------------------------------------|
A-3-------------------------------2------------------------------------------|
E---------------------------------0------------------------------------------|
[Repeat this pattern 4 times]

Part 3
(Both Guitars)
E----------------------------------------------------------------------------|
B----------------------------------------------------------------------------|
G----------------------------------------------------------------------------|
D---------5---------------5--------------------------------------------------|
A-2-333-3---3-2-0-2-333-3---3-2-0--------------------------------------------|
E---------------------------------0-0-0-0-0-0-0-0-0-0-0-0-0-0-0-0------------|


Part 4; Verse riff pt 1
(Both Guitars)
E-------------------------------------------------------------|
B-------------------------------------------------------------|
G--------------------------------------------------5--5-------|
D-9-------9/7---10-9--------7--9-------9/7---3--3--5--5-------|
A-7-------7/5---8--7-10-8-7-8--7-------7/5---3--3--3--3-------|
E---000-0-----0------------------000-0-----0-1--1---------(0)-|

Part 5; Verse riff pt 2
(Guitar 1; Lead Guitar)
E----------------------------------------------------------------------------|
B----------------------------------------------------------------------------|
G---------------7--7-------------------------7--7--12-11---11----------------|
D-2-------5-5---7--7------------2-------5-5--7--7--------12------------------|
A-2-------2/3---5--5--5-5-5-5-5-2-------2/3--5--5----------------------------|
E-0-000-0-----0-----------------0-000-0-----0--------------------------------|

(Guitar 2; Rhythm)
E----------------------------------------------------------------------------|
B----------------------------------------------------------------------------|
G---------------7--7-------------------------7--7----------------------------|
D-2-------5/5---7--7------------2-------5/5--7--7----------------------------|
A-2-------2/3---5--5--5-5-5-5-5-2-------2/3--5--5*---------------------------|
E-0-000-0-----0-----------------0-000-0-----0--------------------------------|
[Hold out the very last power chord]



Part 6; Chorus pt 1
(Both Guitars)
E----------------------------------------------------------------------------|
B----------------------------------------------------------------------------|
G----------------------------------------------------------------------------|
D---------5---------------5---3-2--------------------------------------------|
A-233-3-3---3-2-0-233-3-3---3-3-2--------------------------------------------|
E-----------------------------1-0--0-0-0-0-0-0-0-0-0-0-0-0-0-0-0-0-0---------|

Pt 2
E----------------------------------------------------------------------------|
B----------------------------------------------------------------------------|
G----------------------------------------------------------------------------|
D---------------2---------3---3-2--------------------------------------------|
A---------3---3---3-------3---3-2--------------------------------------------|
E-111-1-1---1-------1-1-1-1-1-1-0--0-0-0-0-0-0-0-0-0-0-0-0-0-0-0-0-0---------|

Pt 3
E----------------------------------------------------------------------------|
B----------------------------------------------------------------------------|
G----------------------------------------------------------------------------|
D---------5---------------5---3-2--------------------------------------------|
A-233-3-3---3-2-0-233-3-3---3-3-2--------------------------------------------|
E-----------------------------1-0--0-0-0-0-0-0-0-0-0-0-0-0-0-0-0-0-0---------|

Pt 4
E-----------------------------------------------------------------------------|
B-----------------------------------------------------------------------------|
G-----------------------------------------------------------------------------|
D---------------2---3---3-2-------3---3-2-------3---3-2-------3---3-2---------|
A---------3---3---3-3---3-2-------3---3-2-------3---3-2-------3---3-2---------|
E-111-1-1---1-------1-0-1-0-0-0-0-1-0-1-0-0-0-0-1-0-1-0-0-0-0-1-0-1-0-0000000-|
[NOTE: the last notes of the chorus (the open notes) are NOT picked faster than the 
other notes, they are packed so tight together because i was out of space.]

Part 7; Post chorus riff
(Guitar 1; Lead Guitar)
E----------------------------------------------------------------------------|
B-------------------------------------------------------3-5-3h5p3------------|
G-------------4------4-5-7------------------4-------4-5-----------5----------|
D-6-------6-7--------------------6-------6-7---------------------------------|
A----------------------------------------------------------------------------|
E---0-0-0-------0-0-0------0-0-0---0-0-0------0-0-0--------------------------|


E----------------------------------------------------------------------------|
B----------------------------------------------------------------------------|
G-------------4------4-5-7------------------4-5-7-5-4---5-4------------------|
D-6-------6-7--------------------6-------6-7----------7-----7-6--------------|
A----------------------------------------------------------------------------|
E---0-0-0-------0-0-0------0-0-0---0-0-0-------------------------------------|


(Guitar 2; Rhythm Guitar)
E----------------------------------------------------------------------------|
B----------------------------------------------------------------------------|
G---------------------------------------------------------4-5-4h5p4----------|
D-------------6-------6-7-9-------------------6-------6-7-----------7--------|
A-7-------7-8---------------------7-------7-8--------------------------------|
E---0-0-0-------0-0-0-------0-0-0---0-0-0-------0-0-0------------------------|


E----------------------------------------------------------------------------|
B----------------------------------------------------------------------------|
G----------------------------------------------------------------------------|
D-------------6-------6-7-9-------------------6-7-9-7-6---7-6----------------|
A-7-------7-8---------------------7-------7-8-----------8-----8-7------------|
E---0-0-0-------0-0-0-------0-0-0---0-0-0------------------------------------|



(((PLAY THE VERSES AND CHORUSES AGAIN)))


Part 8; Guitar solo pt 1
(Guitar 1; Lead Guitar)
E-----------------------------------------------------------------------------|
B-17-15----15--15h17p15-13h15p13-12h13p12-------------------------------------|
G-------16--------------------------------14h17p14-12h14p12-16-14-12-16-14-12-|
D-----------------------------------------------------------------------------|
A-----------------------------------------------------------------------------|
E-----------------------------------------------------------------------------|

pt 2
E----------------------------------------------------------------------------|
B----------------------------------------------------------------------------|
G-16-14-12-16-14-12------------------------16--------------------------------|
D-------------------16--14--14-16-17-16-14----16-14-16-17-16-17-17--14-12-11-|
A----------------------------------------------------------------------------|
E----------------------------------------------------------------------------|

pt 3
E----------------------------------------------------------------------------|
B----------------------------------------------------------------------------|
G-12-11----11--------------------------------------16p14p12-14--14p12p11-12--|
D-------12----12-12-14------------14----14-16-17-----------------------------|
A------------------------14-14-14----14--------------------------------------|
E----------------------------------------------------------------------------|


pt 4
E----------------------------------|
B----------------------------------|
G-11h12p11h1211h12p11h12-12--11--9-|
D----------------------------------|
A----------------------------------|
E----------------------------------|


Guitar 2; Rhythm Guitar
pt 1
E---------------------------------------------------------------|
B---------------------------------------------------------------|
G---------------------------------------------------------------|
D-------------------------5--5-5--------------------------------|
A-------------------------0--2-3--3-3-3-3-3-3-3-3-3-3-3-3-3-3-3-|
E-0-0-0-0-0-0-0-0-0-0-0-0---------------------------------------|


pt 2
E---------------------------------------------------------------|
B---------------------------------------------------------------|
G---------------------------------------------------------------|
D-------------------------5--5-5----------------7---------------|
A-------------------------0--2-3--3-3-3-3-3-3-3-5-5-5-5-5-5-5-5-|
E-0-0-0-0-0-0-0-0-0-0-0-0---------------------------------------|

[Play the whole rhythm part 2 times]


Part 9; Post solo riff
(Both Guitars)
pt 1
E---------------------------------------------------------------|
B---------------------------------------------------------------|
G---------------------------------------------------------------|
D-------------------------5--5-5------------------------5-------|
A-------------------------0--2-3--3-3-3-3-3-3-3-233-3-3---3-2---|
E-0-0-0-0-0-0-0-0-0-0-0-0-------------------------------------3-|


pt 2
E---------------------------------------------------------------|
B---------------------------------------------------------------|
G---------------------------------------------------------------|
D-------------------------5--5-5------------------------5-------|
A-------------------------0--2-3--3-3-3-3-3-3-3-233-3-3---3-2-0-|
E-0-0-0-0-0-0-0-0-0-0-0-0---------------------------------------|
[Play this whole riff 2 times]


The rest of the song is parts that have already tabbed above (ex: verse riffs, chorus riffs).

Band Website: http://tropianofficial.com/
Tap to rate this tab
 
# A B C D E F G H I J K L M N O P Q R S T U V W X Y Z