Song name
# A B C D E F G H I J K L M N O P Q R S T U V W X Y Z

Trouble - Pray For The Dead tab

email: portablemadness@yahoo.com

Killer early doom, sludge, Black Sabbath-esqe riffs with christian lyrics....ironic huh?

Tune full step down: D G C F A D


Riff 1 (intro):

|-------------------------------------------|
|-------------------------------------------|
|--3---3-3--3-3--3-3------------------------|
|--3---3-3--3-3--3-3------------------------|
|--1---1-1--1-1--1-1--2---2-2--2-2--2-2-----|
|---------------------0---0-0--0-0--0-0-----|

Riff 2:

|------------------------------------------|
|------------------------------------------|
|-------9---8------4--5---5b(5)--4---------|
|---------------9--------------------------|
|--/7--------------------------------------|
|------------------------------------------|

Riff 3:

|---------------------------------------------------|
|---------------------------------------------------|
|---------3--3------9--9------3--3------------------|
|--2------3--3------9--9------3--3------------------|
|--2------1--1------7--7------1--1--\8--------------|
|--0----X---------X---------X-----------10--6-------|

Cont.
|-----------------------------------------------|
|-----------------------------------------------|
|---------3--3------9--9------------------------|
|--2------3--3------9--9---10/-- 8--9-----------|
|--2------1--1------7--7---10/-- 8--9-----------|
|--0----X---------X--------12/-- 6--7-----------|

Riff 4:

|---------------------------------------|
|---------------------------------------|
|----------14--14--- 10-10---10-10------|
|--7--7----14--14--- 10-10---10-10------|
|--7--7----12--12----8--8----8--8-------|
|--5--5---------------------------------|

|----------------------------------------------|
|----------------------------------------------|
|----------14--14--- 10-10---10-10--- 14-14----|
|--7--7----14--14--- 10-10---10-10--- 14-14----|
|--7--7----12--12----8--8----8--8----12-12-----|
|--5--5----------------------------------------|

Riff 5:

|----------------------------------------|
|----------------------------------------|
|----------------------------------------|
|----------3-3-3-3-----------------------|
|----------1-1-1-1-5-5-5-5--1-2-1--------|
|--0-0-0-0---------3-3-3-3--------2------|

|------------------------------------------|
|------------------------------------------|
|------------------------------------------|
|----------3-3-3-3-------------------------|
|----------1-1-1-1-5-5-5-5--5-5-5h6p5------|
|--0-0-0-0---------3-3-3-3------------3----|

|-------------------------------------------|
|-------------------------------------------|
|-------------------------------------------|
|----------3-3-3-3----------7-5--5----------|
|----------1-1-1-1-5-5-5-5------7--7-5-7----|
|--0-0-0-0---------3-3-3-3------------------|

Riff 6:

|-------------------------------------------|
|-------------------------------------------|
|--------------------------------------14---|
|--0-7-6-5--------0-7-6-5-----5-6------14---|
|--------------------------------------12---|
|-------------------------------------------|

|---------------------------------------------|
|---------------------------------------------|
|----------------------------------------14---|
|--0-7-6-5--------0-7-6-5-----5-6---14-0-14---|
|-----------------------------------14-0-12---|
|-----------------------------------12--------|

Riff 7 (solo):

|-------------------------------------------------------------------|
|-------------------------------------------------------------------|
|-------------------------------------------------------------------|
|--6-----------7---6------------------------------------------------|
|--6--6-6-6-6--5---6--6-6-6-6-6-6---7--7-7-7-7--7-7-7-7--7-7-7-7----|
|--4--4-4-4-4------4--4-4-4-4-4-4---5--5-5-5-5--5-5-5-5--5-5-5-5----|

cont.
|---------------|
|---------------|
|---------------|
|-7-7-7-7--7----|
|-7-7-7-7--5----|
|-5-5-5-5-------|

Riff 8:

|--------------------------------------------------------|
|--------------------------------------------------------|
|--8-----------------------------------------------------|
|--8---- 10 ----7----4-------------------3---------------|
|--6---- 10 ----7----4------5-4---5-4----1----5----2-----|
|--------8-----5----2----0-3-2-0-3-2-0-------3----0------|


|---------------------------------|
|---------------------------------|
|---------------------------------|
|--6--6--6--6--------6--6---------|
|--4--4--4--4--5-----4--4--5------|
|--------------3-----------3------|
Tap to rate this tab
# A B C D E F G H I J K L M N O P Q R S T U V W X Y Z