Song name
# A B C D E F G H I J K L M N O P Q R S T U V W X Y Z

Trout Fishing In America - We Are The Dinosaurs tab

-------------------------------------------------------------------------------
               We Are The Dinosaurs - Trout Fishing In America
-------------------------------------------------------------------------------
Tabbed by:Tristong
Email:tristong.cmisd@gmail.com

Tuning:Standard E,A,D,G,B,e

Guitar 1 - Deep tone and slight distortion
Guitar 2 - Deep tone and a little more distortion than guitar 1

After the introduction I spaced the notes played according to the time they should be 
if the lyrics in the actual song were accompanying the instrament.

~Intro~
(Guitar 1)
e|-------------------------------------------------------------------------|
B|-------------------------------------------------------------------------|
G|------------------------------------------------------------------5------|
D|-7-7--x-x-7-7-5-7-x-x-7-7-x-x-9-7-5-7-x-x-7-7-x-x-7-7-5-7-x-x-7-7-5-7-5-7|
A|-7-7--x-x-7-7-5-5-x-x-7-7-x-x-7-7-5-7-x-x-7-7-x-x-7-7-5-7-x-x-7-7---7-5-7|
E|-5-5--x-x-5-5-3-5-x-x-5-5-x-x-5-5-5-5-x-x-5-5-x-x-5-5-3-5-x-x-5-5-------5|

          (Guitar 2 pick slide during 5th muted note)
          (Guitar 2)
          e|---------------|
          B|---------------|
          G|------12\2-----|
          D|------12\2-----|
          A|---------------|
          E|---------------|

~Riff before Chorus~
(Guitar 1)
e|-----------------|
B|-----------------|
G|-----------------|
D|-7-7-7-7-7-7-7-7-|
A|-7-7-7-7-7-7-7-7-|
E|-5-5-5-5-5-5-5-5-|

~Chorus~
(Guitar 1)
"We are the dinosaurs."
e|---------------------|      e|---------------|
B|---------------------|      B|---------------|
G|---------------------|      G|---------------|
D|-7-------7----x---x--|      D|-7---7---5---7-|
A|-7-------7----x---x--|      A|-7---7---5---7-|
E|-5-------5----x---x--|      E|-5---5---3---5-|

(Guitar 1)
"Bigger than a grocery store."
e|----------------------------|      e|-----------|
B|----------------------------|      B|-----------|
G|----------------------------|      G|-7\5-0-----|
D|-7--------7----x---x--------|      D|-7\5-0---7-|
A|-7--------7----x---x--------|      A|-5\3-0---7-|
E|-5--------5----x---x--------|      E|---------5-|

(Guitar 1)
"Food is what we're looking for."
e|-------------------------------|      e|---------------|
B|-------------------------------|      B|---------------|
G|-------------------------------|      G|---------------|
D|-7--------7----x---x-----------|      D|-7---7---5---7-|
A|-7--------7----x---x-----------|      A|-7---7---5---7-|
E|-5--------5----x---x-----------|      E|-5---5---3---5-|

(Guitar 1)
"To find enough's a mighty chore."
e|--------------------------------|      e|-----------|
B|--------------------------------|      B|-----------|
G|--------------------------------|      G|-7\5-0-----|
D|-7--------7----x---x------------|      D|-7\5-0---7-|
A|-7--------7----x---x------------|      A|-5\3-0---7-|
E|-5--------5----x---x------------|      E|---------5-|

(Guitar 1)
"'Cause everything is safe, it's just a little bite."
e|------------------------------------------------------|
B|------------------------------------------------------|
G|------------------------------------------------------|
D|-9--9--11--9--9--9--11--9--7--7--9--7--7--7--9--7---7-|
A|-7--7--9---7--7--7--9---7--5--5--7--5--5--5--7--5---7-|
E|----------------------------------------------------5-|

"Raaawwwrrr!"
(Start after the ending of "Raaawwwrrr!")
e|---------|
B|---------|
G|---------|
D|-3/5-x-7-|
A|-3/5-x-7-|
E|-3/5-x-5-|

~Verse 1~

(Guitar 1)
"I'm long as a house, but I'm not to tall."
e|-------------------------------------------|      E|---------|
B|-------------------------------------------|      B|---------|
G|-------------------------------------------|      G|---------|
D|-7-----------7---x-x----7----------------7-|      D|-3/5-x-7-|
A|-7-----------7---x-x----7----------------7-|      A|-3/5-x-7-|
E|-5-----------5---x-x----5----------------5-|      E|-3/5-x-5-|

(Guitar 1)
"I'm hip, I'm heavy about nine tons in all."
e|------------------------------------------|      E|---------|
B|------------------------------------------|      B|---------|
G|------------------------------------------|      G|---------|
D|--7----7-----x--x-----7------x--x----7----|      D|-3/5-x-7-|
A|--7----7-----x--x-----7------x--x----7----|      A|-3/5-x-7-|
E|--5----5-----x--x-----7------x--x----7----|      E|-3/5-x-5-|

(Guitar 1)
"Gotta boney sheild, I gotta tail that flops."
e|------------------------------------------|       e|---------|
B|------------------------------------------|       B|---------|
G|------------------------------------------|       G|---------|
D|-7--------7---x--x--7----x--x------7------|       D|-3/5-x-7-|
A|-7--------7---x--x--7----x--x------7------|       A|-3/5-x-7-|
E|-5--------5---x--x--5----x--x------5------|       E|-3/5-x-5-|

(Guitar 1)
"'Cause I'm a three horned a happenin'triceratops."
e|------------------|                e|----------------|
B|------------------|                B|----------------|
G|------------------|                G|----------------|
D|-3/5-----x------7-|                D|-7-7-7-7-7-7-7-7|
A|-3/5-----x------7-|                A|-7-7-7-7-7-7-7-7|
E|-3/5-----x------5-|                E|-5-5-5-5-5-5-5-5|

~Chorus~

(Guitar 1)
"We are the dinosaurs."
e|---------------------|      e|---------------|
B|---------------------|      B|---------------|
G|---------------------|      G|---------------|
D|-7-------7----x---x--|      D|-7---7---5---7-|
A|-7-------7----x---x--|      A|-7---7---5---7-|
E|-5-------5----x---x--|      E|-5---5---3---5-|

(Guitar 1)
"Bigger than a grocery store."
e|----------------------------|      e|-----------|
B|----------------------------|      B|-----------|
G|----------------------------|      G|-7\5-0-----|
D|-7--------7----x---x--------|      D|-7\5-0---7-|
A|-7--------7----x---x--------|      A|-5\3-0---7-|
E|-5--------5----x---x--------|      E|---------5-|

(Guitar 1)
"Food is what we're looking for."
e|-------------------------------|      e|---------------|
B|-------------------------------|      B|---------------|
G|-------------------------------|      G|---------------|
D|-7--------7----x---x-----------|      D|-7---7---5---7-|
A|-7--------7----x---x-----------|      A|-7---7---5---7-|
E|-5--------5----x---x-----------|      E|-5---5---3---5-|

(Guitar 1)
"To find enough's a mighty chore."
e|--------------------------------|      e|-----------|
B|--------------------------------|      B|-----------|
G|--------------------------------|      G|-7\5-0-----|
D|-7--------7----x---x------------|      D|-7\5-0---7-|
A|-7--------7----x---x------------|      A|-5\3-0---7-|
E|-5--------5----x---x------------|      E|---------5-|

(Guitar 1)
"'Cause everything is safe, it's just a little bite."
e|------------------------------------------------------|
B|------------------------------------------------------|
G|------------------------------------------------------|
D|-9--9--11--9--9--9--11--9--7--7--9--7--7--7--9--7---7-|
A|-7--7--9---7--7--7--9---7--5--5--7--5--5--5--7--5---7-|
E|----------------------------------------------------5-|

(Guitar 1)
"Raaawwwrrr!"
(Start after the ending of "Raaawwwrrr!")
e|---------|
B|---------|
G|---------|
D|-3/5-x-7-|
A|-3/5-x-7-|
E|-3/5-x-5-|


~Solo~
(Guitar 2's solo is tremmel picking all the way through)
          (Guitar 2)
          e|---------------------------------------------------------------|
          B|---------------------------------------------------------------|
          G|-12-12-12-12-12-12-12-12-12-12-12-12-12-12-14-14-14-14-14-14-14|
          D|---------------------------------------------------------------|
          A|---------------------------------------------------------------|
          E|---------------------------------------------------------------|

          e|---------------------------------------------------------------|
          B|---------------------------------------------------------------|
          G|-15-15-15-15-15-15-15-15-15-15-15-15-15-15-17-17-17-17-17-17-17|
          D|---------------------------------------------------------------|
          A|---------------------------------------------------------------|
          E|---------------------------------------------------------------|

          e|---------------------------------------------------------------|
          B|---------------------------------------------------------------|
          G|-17-17-17-17-17-17-17-19-19-19-19-19-19-19-19-19-19-19-19-19-19|
          D|---------------------------------------------------------------|
          A|---------------------------------------------------------------|
          E|---------------------------------------------------------------|

          e|-------------------------------------------|
          B|-------------------------------------------|
          G|-21-21-21-21-21-21-21-21-21-21-21-21-21-21-|
          D|-------------------------------------------|
          A|-------------------------------------------|
          E|-------------------------------------------|

(Guitar 1 after Guitar 2's solo)
(Guitar 1)
e|--------------------------|
B|--------------------------|
G|--------------------------|
D|-7-7-7-7-7-7-7-7--7-7-5-7-|
A|-7-7-7-7-7-7-7-7--7-7-5-7-|
E|-5-5-5-5-5-5-5-5--5-5-3-5-|


"Now I'm tyrannosaurus-rex, and I'm the leader of the pack."
e|---------------------------------------------------------|
B|---------------------------------------------------------|
G|---------------------------------------------------------|
D|--------7--------7-------------------5-------------7-----|
A|--------7--------7-------------------7-------------7-----|
E|--------5--------5-------------------7-------------5-----|

"I could eat a hippopotamus, and call it just a snack."
e|-----------------------------------------------------|
B|-----------------------------------------------------|
G|-----------------------------------------------------|
D|------7----------7------------------7---------7------|
A|------7----------7------------------7---------7------|
E|------5----------5------------------5---------5------|

"The sound of my foot steps, it fills the world with fear."
e|---------------------------------------------------------|
B|---------------------------------------------------------|
G|---------------------------------------------------------|
D|---7-----------7--------------7---------------------7----|
A|---7-----------7--------------7---------------------7----|
E|---5-----------5--------------5---------------------5----|

"But what's caught between my teeth, could feed an army for a year."
e|--------------|                                     e|----------------|
B|--------------|                                     B|----------------|
G|--------------|                                     G|----------------|
D|----------7---|                                     D|-7-7-7-7-7-7-7-7|
A|----------7---|                                     A|-7-7-7-7-7-7-7-7|
E|----------5---|                                     E|-5-5-5-5-5-5-5-5|

~Chorus~

(Guitar 1)
"We are the dinosaurs."
e|---------------------|      e|---------------|
B|---------------------|      B|---------------|
G|---------------------|      G|---------------|
D|-7-------7----x---x--|      D|-7---7---5---7-|
A|-7-------7----x---x--|      A|-7---7---5---7-|
E|-5-------5----x---x--|      E|-5---5---3---5-|

(Guitar 1)
"Bigger than a grocery store."
e|----------------------------|      e|-----------|
B|----------------------------|      B|-----------|
G|----------------------------|      G|-7\5-0-----|
D|-7--------7----x---x--------|      D|-7\5-0---7-|
A|-7--------7----x---x--------|      A|-5\3-0---7-|
E|-5--------5----x---x--------|      E|---------5-|

(Guitar 1)
"Food is what we're looking for."
e|-------------------------------|      e|---------------|
B|-------------------------------|      B|---------------|
G|-------------------------------|      G|---------------|
D|-7--------7----x---x-----------|      D|-7---7---5---7-|
A|-7--------7----x---x-----------|      A|-7---7---5---7-|
E|-5--------5----x---x-----------|      E|-5---5---3---5-|

(Guitar 1)
"To find enough's a mighty chore."
e|--------------------------------|      e|-----------|
B|--------------------------------|      B|-----------|
G|--------------------------------|      G|-7\5-0-----|
D|-7--------7----x---x------------|      D|-7\5-0---7-|
A|-7--------7----x---x------------|      A|-5\3-0---7-|
E|-5--------5----x---x------------|      E|---------5-|

(Guitar 1)
"'Cause everything is safe, it's just a little bite."
e|------------------------------------------------------|
B|------------------------------------------------------|
G|------------------------------------------------------|
D|-9--9--11--9--9--9--11--9--7--7--9--7--7--7--9--7---7-|
A|-7--7--9---7--7--7--9---7--5--5--7--5--5--5--7--5---7-|
E|----------------------------------------------------5-|

~Outro~

"Raaawwwrrr!"
e|--------------------------|
B|--------------------------|
G|--------------------------|
D|-7-7-7-7-7-7-7-7--7-7-5-7-|
A|-7-7-7-7-7-7-7-7--7-7-5-7-|
E|-5-5-5-5-5-5-5-5--5-5-3-5-|

          (Guitar pick slide after Guitar 1)
          (Guitar 2)
          e|------------|
          B|------------|
          G|------------|
          D|-19\3-------|
          A|-19\3-------|
          E|------------|

************************************

| /   slide up
| \   slide down
| h   hammer-on
| p   pull-off
| ~   vibrato
| +   harmonic
| x   Mute note
| b   Bend
| pb  Pre-bend
| br  Bend release
| pbr Pre-bend release
| brb Bend release bend

************************************
Tap to rate this tab
 
# A B C D E F G H I J K L M N O P Q R S T U V W X Y Z