Song name
# A B C D E F G H I J K L M N O P Q R S T U V W X Y Z

Trower Robin - Daydream tab

From: behm@ucsu.Colorado.EDU (BEHM CHRISTOPHER JOSEPH)
Subject: TAB: Robin Trower "Daydream" Intro

		Intro to "Daydream" from Robin Trower Live (1975?)

						John Mastrangelo
						ice@its.bldrdoc.gov
						(respond to this address)



h hammer on
p = pull off
\\\\\\\ = gliss down
s = slide

------------------------------------------------------------4------------------
------9-10----9h10p9--------------------9-------------------5-----------------
------9--9----9---------------------------9-----------------4-----------------
-----------------------11----------9h11-----9h11p9----------6------------------
---------------------------------------------------11\\\\---4------------------
------------------------------------------------------------4------------------


-------------------------------------------------------------------------------
------4h5p4--------------------------------------------------------------------
------4-------4h6p4-----------------3h4----------------------------------------
---------------------4h6p4--------5--------------------7s9-7h9p7---------------
--------------------------------5----------------5h7p5-------------------------
------------------------------3--------------5s7-------------------------------


-------------------------------------------------------------------------------
-------------------------------------------------------------------------------
--------------7h8-----------4h6p4----------------------------------------------
------------9-----------4s6-------4s6------------------------------------------
----------9--------------------------------------------------------------------
--------7------------------------------7\\\\\----------------------------------
Tap to rate this tab
# A B C D E F G H I J K L M N O P Q R S T U V W X Y Z