Song name
# A B C D E F G H I J K L M N O P Q R S T U V W X Y Z

Troy Stetina - Open Fire tab

Artist Troy Stetina

Song  Open Fire

/    slide up
\    slide down
+    pich armonic
p    pul off
b    ben
h    hamer
v    vibratto
x    death notes
r    release
fb   full bend
...  hold note
Hb   hold bend


|--------------------------------------------------------|
|---------------x---------x--+---------------------------|
|------5--5v----7--5------7--5-------------------5-------|
|---/7-------------x--7---------7--5--7--------5----7v---|
|---------------------x-------------------5h7------------|
|--------------------------------------------------------|


|---------------------------------------------------------|
|---------+---------------+-------------------------------|
|------5--5v---7br--5--7--5-------------------------------|
|---/7----------------------7--5--7--5--------------------|
|--------------------------------------7v--5--------------|
|--------------------------------------------8--5--8--5v--|


|-------5------5------5------5------------------5------8---------|
|-----5------5------5------5----------8brp5-8Hb---8Hb------------|
|--7b-----7b-----7b-----7b------7brp5----------------------------|
|----------------------------------------------------------------|
|----------------------------------------------------------x\\\--|
|----------------------------------------------------------x\\\--|


|------------------------------------------------------------|
|----------------------5-------------------------------------|
|--5-------7-----5--------7b-7-5-------7br--5----------------|
|--x--7-7-----7--x--7--------------7-----------7--5----------|
|-----x-x-----x-----x--------------------------------7v------|
|------------------------------------------------------------|

|------------------------------|
|--------------8---------8fb---|
|--------5-7Hb.......rp5-------|
|---5-7------------------------|
|------------------------------|
|------------------------------|
|------------------------------|

   Enjoy


            JOEL    SAGOT...
Tap to rate this tab
# A B C D E F G H I J K L M N O P Q R S T U V W X Y Z