Song name
# A B C D E F G H I J K L M N O P Q R S T U V W X Y Z

Truckfighters - The New High tab

Tabbed by: Nex_
Email: nthentity@gmail.com

Truckfighters - The New High

Tuning: Standard

Intro Riff (0:42)

 D|-----------------------------------|
 A|-----------------------------------|
 F|-----------------------------------|
 C|--11-11-11-11-11-11---11-11---7----|    x4
 G|--11-11-11-11-11-11---11-11---7----|
 C|--9--9--9--9--9--9----9--9----9----|


Verse (0:56)

 D|---------------------------------------|
 A|---------------------------------------|
 F|--9----------8----------7--------------|
 C|--9----------8----------7--------------|    x12
 G|--7--777777--6--666666--5--555555------|
 C|-----777777-----666666-----555555------|


Bridge (1:43)

 D|-----------------------------------|
 A|-----------------------------------|
 F|-----------------------------------|
 C|--666666--66--9---66666--5--4--2---|
 G|--666666--66--9---66666--5--4--2---|
 C|--444444--44--7---44444--3--2--1---|


Chorus I (1:50)

 D|-------------------------------------------|
 A|-------------------------------------------|
 F|-------------------------------------------|
 C|--11--11-11-11--14--13--12----7777--9999---|
 G|--11--11-11-11--14--13--12----7777--9999---|
 C|--9---9--9--9---12--11--10----5555--7777---|


 D|-------------------------------------------|
 A|-------------------------------------------|
 F|-------------------------------------------|
 C|--11--11-11-11--14--13--12----7777--8888---|
 G|--11--11-11-11--14--13--12----7777--6666---|
 C|--9---9--9--9---12--11--10----5555--6666---|
Tap to rate this tab
 
# A B C D E F G H I J K L M N O P Q R S T U V W X Y Z