Song name
# A B C D E F G H I J K L M N O P Q R S T U V W X Y Z

True Faith - Huwag Na Lang Kaya tab

Huwag na lang kaya
-standard tuning

Intro:
|--------|-----------------------------------|
|--------|--2--T----2--T-------3--T----3--T--|
|--------|--1--A----1--A-------2--A----2--A--|
|--------|--2--P----2--P-------4--P----4--P--|
|------0-|-------0--------0--2------2--------|
|--0h2---|-----------------------------------|

|--------------------------------------------|
|----------5--T----5--T-------3--T----2--T---|
|----------4--A----4--A-------2--A----1--A---|
|----------6--P----6--P-------4--P----3--P---| x2
|-----2--4------4-------4--2------1----------|
|--------------------------------------------|


Verse 1:
|--------|-----------------------------------|
|--------|--2--T----2--T-------3--T----3--T--|
|--------|--1--A----1--A-------2--A----2--A--|
|--------|--2--P----2--P-------4--P----4--P--|
|------0-|-------0--------0--2------2--------|
|--0h2---|-----------------------------------|

|--------------------------------------------|
|----------5--T----5--T-------3--T----2--T---|
|----------4--A----4--A-------2--A----1--A---|
|----------6--P----6--P-------4--P----3--P---| x2
|-----2--4------4-------4--2------1----------|
|--------------------------------------------|


Pre-verse:
|--------2--------2--------------------------|
|--------2--T-----2--T--------5--T-----5--T--|
|--------2--A-----2--A--------6--A-----6--A--|
|-----0-----P--0-----P--0-----4--P-----4--P--|
|--1-----------------------4--------4--------|
|--------------------------------------------|

|--------2--------2--------------------------|
|--------2--T-----2--T--------5--T-----5--T--|
|--------2--A-----2--A--------6--A-----6--A--|
|-----0-----P--0-----P--0-----4--P-----4--P--|
|--4-----------------------4--------4--------|
|--------------------------------------------|

|---2-------4-------2---1---------|
|---3---H---5---P---3---2---H-----|
|---2---O---4---A---2---1---O-----|
|---4---L---6---U---4---3---L-----|
|---2---D---4---S---2---1---D-----|
|---------------E-----------------|


Chorus:
|--------|-----------------------------------|
|--------|--2--T----2--T-------3--T----3--T--|
|--------|--1--A----1--A-------2--A----2--A--|
|--------|--2--P----2--P-------4--P----4--P--|
|------0-|-------0--------0--2------2--------|
|--0h2---|-----------------------------------|

|--------------------------------------------|
|----------5--T----5--T-------3--T----2--T---|
|----------4--A----4--A-------2--A----1--A---|
|----------6--P----6--P-------4--P----3--P---| x2
|-----2--4------4-------4--2------1----------|
|--------------------------------------------|


Verse 2:
(Repeat verse 1 chords)
(Repeat pre-verse chords)

(Repeat Chorus)

(Guitar Solo)-paxenxa na wala ako eh :)

(Repeat Chorus) x4
Tap to rate this tab
# A B C D E F G H I J K L M N O P Q R S T U V W X Y Z