Song name
# A B C D E F G H I J K L M N O P Q R S T U V W X Y Z

Truefaith - Ambon tab

----------------------------------------------------------------------
                             AMBON - TrueFaith
----------------------------------------------------------------------
Tabbed by:edge17_m5
E-mail:edge17_m5@yahoo.com

Tuning:standard
C  : x32010
CM7: x32000
FM7: xx3210
FM6: xx3230
Bb : x13331
G  : 355433
Dm : x57765

please rate or comment tnx!!

INTRO:  CM7-FM7 (2X)

    CM7            FM7 FM6
   Ano'ng nararamdaman
        CM7        FM7   FM6
   Tila ba'y nasasakupan
          CM7       FM7   FM6
   Lumbay at  kalungkutan
  CM7                    FM7  FM6
   Nais mo bang ika'y makaraos din
           Dm7        G
   Di ba't pananampalataya
             Dm7       G
   Kailangan upang makaahon
        Dm7                 G
   Sa delubyong iyong nararanasan
         Bb    C           Bb      C hold
   At sa kasawian na dulot ng panahon
              CM7-CM9-FM7-FM6 (hold)
   Ambon lang yan      (ahh). (2x)

     CM7          FM7    FM6
   Kalangitan ay umiitim
      CM7             FM7     FM6
   Naupos ang ilaw ng mga bituin
            CM7            FM7       FM6
   At sa paglipas ng oras ika'y napaiyak
       CM7                             FM7-FM6
   Mga luhang tumulo buhat ng iyong pagtitimpi
           Dm7                    G
   Di ba't ang Diyos ang siyang liwanag
           Dm7              G
   Sa dulo ng  madilim na daan
            Dm7        G
   Sa Kanya lamang manalangin
           Bb          C        Bb     C hold
   At wag nang tumungo pa kahit saan-saan
              CM7-CM9-FM7-FM6 (hold)
   Ambon lang yan      (ahh). (2x)


   Ad lib: CM7-FM7,FM6; (4x)


e|-------------|------------------|--------------|-------------------------|
B|-------------|------------------|--------------|-------------------------|
G|-------------|-----------5h7--5-|--7-5--7pb(9)-|-7b(9)-7b(9)--7-7--5---5-|
D|------5h7--5-|-------5h7--------|--------------|-------------------------|
A|--5h7--------|---5h7------------|--------------|-------------------------|
E|-------------|------------------|--------------|-------------------------|


e|-------------|------------------|-8-7-------------|----------------------|
B|-------------|----------5-6--8--|-----8--8b(10)r8-|--6-5---8--8b(10)r8---|
G|-5p4---------|-4-5--7-----------|-----------------|----------------------|
D|-------5-----|------------------|-----------------|----------------------|
A|-------------|------------------|-----------------|----------------------|
E|-------------|------------------|-----------------|----------------------|



         Dm7              G
   Yayain mo  ako sa yong jeepney
              Dm7              G
   Sa makulay at  magara mong jeepney
                 Dm7           G
   Na ang biyahe ay  patungong langit
            Bb         C          Bb       C
   Kahit na signal no. 3, tayo ay magsisiawit
         Bb           C             Bb        C hold
   Kung ako'y sinusumpong, daglian mong ibubulong
                CM7--FM7-(FM6)-
   Ambon lang yan      (ahh). (2x)

               Coda
   (Chord pattern CM7-FM7,FM6-)
   Oh oh (ahh)
   Ahh (ahh)
   Ooh (ahh) (6x)
          FM7-FM6 hold
   (Ahh) (ahh).
Tap to rate this tab
 
# A B C D E F G H I J K L M N O P Q R S T U V W X Y Z