Song name
# A B C D E F G H I J K L M N O P Q R S T U V W X Y Z

Truefaith - Huwag Na Lang Kaya tab

===============================================================================
                    Huwag Na Lang Kaya - True Faith
--------------------------------------------------------------------------------
Tabbed by: stephanie_7368
Email:     stephanie_7368@yahoo.com

legends:
  x -> mute the string    
  m -> palm mute
  p -> pull-off
  h -> hammer-on


INTRO

     1     2                                 3
           AM7                               Bm7
     * *   1 * * * 2 * * * 3 * * * 4 * * *   1 * * * 2 * * * 3 * * * 4 * * *
  e|-----|---------0-----------0-----------|-----2---------------2-----------|
  B|-----|---------2---x-------2---t-------|-----3---t-----------3---t-------|
  G|-----|---------1---x-------1---a-------|-----2---a-------2---2---a-------|
  D|-----|-----------------2-------p-------|-4-------p---4-----------p-------|
  A|-----|-0---------------0-----------0---|-2-----------2---------------0---|
  E|-0h2-|---------------------------------|---------------------------------|

     4                                 5
     C#m7                              Bm7         A#M7
     1 * * * 2 * * * 3 * * * 4 * * *   1 * * * 2 * * * 3 * * * 4 * * *
  e|---------4---x-------4-----------|-----2---------------1-----------|
  B|---------5---x-------5---t-------|-----3---t-----------3---t-------|
  G|---------4---x-------4---a-------|-----2---a-----------2---a-------|
  D|-6-----------x---6-------p-------|-4-------p-------3-------p-------|
  A|-4-----------x---4-----------0---|-2-----------1-------------------|
  E|---------------------------------|-----------------------------0h2-|

  (2) (3) (4)

     6 
     Bm7         A#M7
     1 * * * 2 * * * 3 * * * 4 * * *
  e|-----2---x---1-------------------|
  B|-----3---x---3-------------------|
  G|-----2---x---2-------------------|
  D|-4-------x---3-------------------|
  A|-2-------x---1-------------------|
  E|-----------------------------0h2-|

VERSE I

     7
     AM7
     1 * * * 2 * * * 3 * * * 4 * * *
  e|---------0-----------0-----------|
  B|---------2---x-------2---t-------|
  G|---------1---x-------1---a-------|
  D|-----2-------x---2-------p-------|
  A|-0---------------0-----------0---|
  E|---------------------------------|
             na-     is      ko  ay

  (3)       (4)         (5)
     magpakilala sa iyo
  (7)       (3)
    at ipahiwatig ang

     8                                 9
     C#m7                              Em          x02200
     1 * * * 2 * * * 3 * * * 4 * * *   1 * * * 2 * * * 3 * * * 4 * * *
  e|---------4---x-------4-----------|---------------------0-----------|
  B|---------5---x-------5---t-------|---------t-----------0---t-------|
  G|---------4---x-------4---a-------|-----0---a-------2---2---a-------|
  D|-6-----------x---6-------p-------|-----2---p---2-----------p-------|
  A|-4-----------x---4---------------|-2-----------0---------------0---|
  E|---------------------------------|-0-------------------------------|
  nilala-       man      ng      pu-       so     ko

REFRAIN I

     10                                11
     x57675                            C#m7
     1 * * * 2 * * * 3 * * * 4 * * *   1 * * * 2 * * * 3 * * * 4 * * *
  e|---------5---x-------5-----------|-----4---------------4-----------|
  B|---------7---x-------7---t-------|-----5---t-----------5---t-------|
  G|---------6---x-------6---a-------|-----4---a-----------4---a-------|
  D|-----------------7-------p-------|-6-------p---6-----------p-------|
  A|-5-----------x---5-----------0---|-4-----------4---------------0---|
  E|---------------------------------|---------------------------------|
         ma- u-  na- wa- an            mo      ka- ya          o   ba-

  (10)
  ka sampalin mo lang ang

     12                                13
     C#m7                              Bm7
     1 * * * 2 * * * 3 * * * 4 * * *   1 * * * 2 * * * 3 * * * 4 * * *
  e|-----4---------------4-----------|---------------------------------|
  B|-----5---t-----------5---t-------|---------3---x-------3---t-------|
  G|-----4---a-------4---4---a-------|---------2---x-------2---a-------|
  D|-6-------p---6-----------p-------|-4-----------x---4-------p-------|
  A|-4-----------4-------------------|-2-----------x---2---------------|
  E|-----------------------------0---|---------------------------------|
     a-king  mukha              nag-   dadal'wang is-      ip      na

     14
     022200  E
     1 * * * 2 * * * 3 * * * 4 * * *
  e|---------------------------------|
  B|-0-------0-----------------------|
  G|-2---x---1-----------------------|
  D|-2---x---2-----------------------|
  A|-2-------2-----------------------|
  E|-0-------0-------------------0h2-|

CHORUS (same as INTRO)
  huwag na lang kaya
  huwag na lang kaya

VERSE II (same as VERSE I)
  nais ko ay iaalay sa iyo
  ang puso ko na umiibig sa iyo

REFRAIN II (same as REFRAIN I)
  ngunit 'di mo na yata kailangan ng ganyan
  mayro'n ka na yatang kasintahan
  naninikip ang tiyan

(repeat CHORUS)

AD LIB (same as VERSE I)

(repeat REFRAIN II)

(repeat CHORUS)

ENDING

  (7)
    huwag na lang

     15
     x57675
     1 * * * 2 * * * 3 * * * 4 * * *
  e|-----5---------------5-----------|
  B|-----7---t-----------7---t-------|
  G|-----6---a-----------6---a-------|
  D|---------p-------7-------p-------|
  A|-5-----------5-------------------|
  E|-----------------------------0h2-|

  (7)            (15)
    huwag na lang

  (7)            (15)
    huwag na lang     kaya
  (7)

     x57675                            x06907 (or x06m07 para madali)
     1 * * * 2 * * * 3 * * * 4 * * *   1 * * * 2 * * * 3 * * * 4 * * *
  e|-----5-------5-------------------|-7-------------------------------|
  B|-----7---t---7-------------------|-0-------------------------------|
  G|-----6---a---6-------------------|-9-------------------------------|
  D|---------p---7-------------------|-6-------------------------------|
  A|-5-----------5-------------------|-0-------------------------------|
  E|---------------------------------|---------------------------------|
                              ooh...


===============================================================================
Tap to rate this tab
# A B C D E F G H I J K L M N O P Q R S T U V W X Y Z