Song name
# A B C D E F G H I J K L M N O P Q R S T U V W X Y Z

Truefaith - Sayang Ang Lahat tab

 
  

  Song:Sayang ang lahat
  Artist:Truefaith
  


  e-------5h6---5---------------5h6-5-8-------|--------------8-13-15-------|
  b-6-5-6-6---8-6-----6-6-6-5-6-6---6-8-6-5-6-|---------8-10---------15-13-|
  g-5---5---------5h7---5-----5---------5---5-|----7-10--------------------|
  d-------------------------------------------|-10-------------------------|
  a-------------------------------------------|----------------------------|
  e-------------------------------------------|----------------------------|
 
  e---------------8p6-6p5-------5------------------------------------------|
  b-6-6-5-6-----6---------6-------8p6--------------------------------------|
  g-5-----5-5-7-------------7-5--------------------------------------------|
  d------------------------------------------------------------------------|
  a------------------------------------------------------------------------|
  e------------------------------------------------------------------------|
  
  Pagpasensiyahan nyo na lang yung konting mali
  minadali ko lang kasi yan eh..
  
Tap to rate this tab
# A B C D E F G H I J K L M N O P Q R S T U V W X Y Z