Song name
# A B C D E F G H I J K L M N O P Q R S T U V W X Y Z

Truefaith - Arawt Gabi tab

 Adlib:

 e----------14-14b-------------------12---------------|
 b-12/14-14--------------------12-14----15-14-15------|
 g-----------------------11-12------------------------|
 d-----------------12-14------------------------------|
 a----------------------------------------------------|
 e----------------------------------------------------|
 
 e-12/17-17p16----------------------------------------|
 b-------------17-15-14-15----------------------------|
 g-------------------------13-------------------------|
 d----------------------------14-12-11----------------|
 a-------------------------------------14-11----------|
 e----------------------------------------------------| 
 
 Intro:DM7-AM7 (2x)
 Verse 1:
 DM7                         AM7
 Nasa'n ka na nasa'n ka na o giliw ko
  DM7                      AM7-F#7
 Nariyan ba malapit o malayo
          Bm      F#        Bm        F#
 At kung 'di ka makita ay ramdam ka pa rin
 Bm           E              AM7-E
 Araw't gabi lagi kitang kapiling
 
Verse 2:

 DM7                          AM7
 Larawan nakasabit sa may harapan
  DM7                           AM7-F#-
 Nakaraan hinding-hindi malilimutan
       Bm        F#       Bm-F#
 Napaluha ako at napangiti din
 Bm            E               AM7-A7
 Araw't gabi lagi kitang kapiling
 Chorus 1:
        DM7         Dm
 Kahit 'di kita nakausap man lang
        C#m            F#
 Nung gabi na ikaw ay lumisan
  Bm                F#        Esus     E
 Alam na alam ko namang nandirito ka lang
 
Verse 3:
 DM7                            AM7        F#
 Himig natin hindi nawawala sa aking pandinig
 DM7                         AM7-F#m
 Awit na likha ng ating pag-ibig
      Bm          F#               Bm         F#
 At buong gabi inaawit ko hanggang ako'y maidlip
 Bm            E               AM7-A7
 Araw't gabi lagi kitang kapiling
 
repeat chorus
repeat 1st stanza


rate niyo po......JetZ_21^^
 
Tap to rate this tab
# A B C D E F G H I J K L M N O P Q R S T U V W X Y Z