Song name
# A B C D E F G H I J K L M N O P Q R S T U V W X Y Z

Truly - Virtually tab

Truly
Virtually
From the album Fast Stories...From Kid Coma.

Tuning Drop B. B-a-d-g-b-e.

INTRO/VERSE.
e|-3-2-0-------0-------------|
b|-3-3---3---0---0-----0-----|
g|-2-2-----1---------1-------|
d|-0---------------2---------|
a|----------------------(0)--|
B|-----------------------0---|

                               Virtually....
e|-------------------------|  |-------------------|
b|-(0)---------------------|  |-------------------|
g|--0-0---0-0---0---0-0----|  |---(0)-------------|
d|--4-4---4-4---4---4-4----|  |----4----(0)-------|
a|--2-2---2-2---2---2-2-4~-|  |----2-----4-4-x-x--|
B|--0---0-----0---0---0-2~-|  |-0--0--0--2-2-x-x--|


e|-3-2-0-------0-------------|
b|-3-3---3---0---0-----0-----|
g|-2-2-----1---------1-------|
d|-0---------------2---------|
a|----------------------(0)--|
B|-----------------------0---|

                               Virtually...
e|-------------------------|  |-------------------|
b|-(0)---------------------|  |-------------------|
g|--0-0---0-0---0---0-0----|  |---(0)-------------|
d|--4-4---4-4---4---4-4----|  |----4----(0)-------|
a|--2-2---2-2---2---2-2-4~-|  |----2-----4-4-x-x--|
B|--0---0-----0---0---0-2~-|  |-0--0--0--2-2-x-x--|


OUTTRO.      *feedback
e|----------------------------------------------------------------|
b|-14~------------------14-12----14-12----14-12-------------------|
g|-------------------11-------11-------11-------11-14-11/6/11/6---|
d|-11~-11^-9-11*-11/----------------------------------------------|
a|----------------------------------------------------------------|
B|----------------------------------------------------------------|


e|-------------------------------11-14----------------------------|
b|-------------11-14-------11-14-------11-------------------------|
g|-------11-13-------11-13----------------------11-13-------11-13-|
d|-11-14----------------------------------11-14-------11-14-------|
a|----------------------------------------------------------------|
B|----------------------------------------------------------------|

Not sure about the rest after this, couldn't figure it all out.
e|----------14-11-|--------------------------------------------------------|
b|-11-12-14-------|--------------------------------------------------------|
g|----------------|----------13-13-11-9-11-9-9-11-9/7-9-7-6-7-6---7-6------|
d|----------------|-11-12-14------------------------------------9-----7-9--|
a|----------------|-------------------------------------------------------9|
B|----------------|--------------------------------------------------------|

e|---------------------------------------------------------12-----------|
b|------14^---12/14-10/12-10-10-12-10-14^-12-10/12-12^-12^----12^-10-12-|
g|----------------------------------------------------------------------|
d|-9-11~----------------------------------------------------------------|
a|----------12----------------------------------------------------------|
B|----------------------------------------------------------------------|


e|-----12------------------------------|
b|-12^----12^-10-12-12-12^-12^-12^-----|
g|-------------------------------------|
d|-------------------------------------|
a|-------------------------------------|   
B|-------------------------------------|


e|-------------------|
b|-------------------|
g|---(0)-------------|
d|----4----(0)-------|
a|----2-----4-4-x-x--|
B|-0--0--0--2-2-x-x--|



Tap to rate this tab
# A B C D E F G H I J K L M N O P Q R S T U V W X Y Z