Song name
# A B C D E F G H I J K L M N O P Q R S T U V W X Y Z

Trustcompany - Downfall tab

main riff
            3x           1x
Eb|------------|------------|
Bb|------------|------------|
Gb|------------|------------|
Db|-022-022-02-|-055-555-55-|
Ab|-022-022-02-|-033-333-33-|
Db|-022-022-02-|-033-333-33-|

lead
            3x                          1x
Eb|------------|---------------------------|
Bb|------------|---------------------------|
Gb|-999-999-99-|-9-10-10-10-10-10-10-10-10-|
Db|-xxx-xxx-xx-|-x-x--x--x--x--x--x--x--x--|
Ab|-777-777-77-|-7-8--8--8--8--8--8--8--8--|
Db|------------|---------------------------|

pre-chorus #1
             3x           1x           3x          1x
Eb|------------|------------|------------|-----------|
Bb|------------|------------|------------|--------xx-|
Gb|------------|------------|------------|--------xx-|
Db|-022-022-02-|-055-555-55-|-022-022-02-|--------xx-|
Ab|-022-022-02-|-033-333-33-|-022-022-02-|-5*-5*--xx-|
Db|-022-022-02-|-033-333-33-|-022-022-02-|-5*-5*--xx-|

chorus

Eb|---------------------------------------------------------------------|
Bb|-5555555555555555----------------------------------------------------|
Gb|-4444444444444444-5555555555555555------------------2222222222222222-|
Db|-2222222222222222-5555555555555555-5555777777775555-0000000000000000-|
Ab|-2222222222222222-3333333333333333-5555555555555555-0000000000000000-|
Db|-2222222222222222------------------5555555555555555-0000000000000000-|

main riff
            3x           1x
Eb|------------|------------|
Bb|------------|------------|
Gb|------------|------------|
Db|-022-022-02-|-055-555-55-|
Ab|-022-022-02-|-033-333-33-|
Db|-022-022-02-|-033-333-33-|

lead
            3x                          1x
Eb|------------|---------------------------|
Bb|------------|---------------------------|
Gb|-999-999-99-|-9-10-10-10-10-10-10-10-10-|
Db|-xxx-xxx-xx-|-x-x--x--x--x--x--x--x--x--|
Ab|-777-777-77-|-7-8--8--8--8--8--8--8--8--|
Db|------------|---------------------------|

pre-chorus #2

Eb|-----------------|------------|-----------------|-----|
Bb|-----------------|------------|-----------------|-----|
Gb|-----------------|------------|-----------------|-----|
Db|-22--------------|-2----------|-22--------------|-0-3-|
Ab|-22-5*5*5*5*5*5*-|-2-5*5*5*5*-|-22-5*5*5*5*5*5*-|-0-3-|
Db|-22-5*5*5*5*5*5*-|-2-5*5*5*5*-|-22-5*5*5*5*5*5*-|-0-3-|

chorus

Eb|---------------------------------------------------------------------|
Bb|-5555555555555555----------------------------------------------------|
Gb|-4444444444444444-5555555555555555------------------2222222222222222-|
Db|-2222222222222222-5555555555555555-5555777777775555-0000000000000000-|
Ab|-2222222222222222-3333333333333333-5555555555555555-0000000000000000-|
Db|-2222222222222222------------------5555555555555555-0000000000000000-|

pre-bridge

Eb|------------------|-----------------|
Bb|------------------|-----------------|
Gb|------------------|-----------------|
Db|------------------|-----------------|
Ab|------3----3----3-|-----3----3------|
Db|--0-2---02---02---|-0-2---02---02---|

bridge
                  3x                  1x
Eb|-----------------|-------------------|
Bb|-----------------|-------------------|
Gb|-----------------|-------------------|
Db|-0-2---02---02---|-0-2---02----------|
Ab|-0-2-3-02-3-02-3-|-0-2-3-02-5*5*5*5*-|
Db|-0-2---02---02---|-0-2---02-5*5*5*5*-|

chorus

Eb|---------------------------------------------------------------------|
Bb|-5555555555555555----------------------------------------------------|
Gb|-4444444444444444-5555555555555555------------------2222222222222222-|
Db|-2222222222222222-5555555555555555-5555777777775555-0000000000000000-|
Ab|-2222222222222222-3333333333333333-5555555555555555-0000000000000000-|
Db|-2222222222222222------------------5555555555555555-0000000000000000-|

outtro

Eb|-----------------|------------|-----------------|-----|
Bb|-----------------|------------|-----------------|-----|
Gb|-----------------|------------|-----------------|-----|
Db|-22--------------|-2----------|-22--------------|-0-3-|
Ab|-22-5*5*5*5*5*5*-|-2-5*5*5*5*-|-22-5*5*5*5*5*5*-|-0-3-|
Db|-22-5*5*5*5*5*5*-|-2-5*5*5*5*-|-22-5*5*5*5*5*5*-|-0-3-|
Tap to rate this tab
# A B C D E F G H I J K L M N O P Q R S T U V W X Y Z