Song name
# A B C D E F G H I J K L M N O P Q R S T U V W X Y Z

Trustcompany - Drop To Zero tab

Tabbed by: Ahrum
E-mail: TheMoogleDance@hotmail.com

Tuning: Drop C#


Intro [Chorus Pedal]
D#|----------------------------------------|
A#|----6--5--6--5--5-6----6--5--6--5--5-6--|
F#|-----5--5--5--5---------5--5--5--5------|
C#|------7--7--7--7---------7--7--7--7-----|
G#|---0------------------0-----------------|
C#|-0------------------8-------------------| x2

Buildup [Chorus Pedal]
D#|-------------------------------|
A#|-------------------------------|
F#|-------------------------------|
C#|-------------------------------|
G#|-------------------------------|
C#|-80-0-080-0-0800080-0-080-0-08-|



DROP [Distorted]
D#|-------------------------------------------------------------------|-----------|
A#|-------------------------------------------------------------------|-----------|
F#|-------------------------------------------------------------------|-----------|
C#|-80-0-080-0-0800080-0-080-0-0800080-0-080-0-08000-5555553-33333-33-|-----------|
G#|-80-0-080-0-0800080-0-080-0-0800080-0-080-0-08000-3333331-11111-11-|-----------|
C#|-80-0-080-0-0800080-0-080-0-0800080-0-080-0-08000------------------|---///////-|

Verse [Clean]
D#|------------------------|
A#|------------------------|
F#|------------------------|
C#|-8888888888888-10---0---|
G#|-8888888888888-10---0---|
C#|-8888888888888-10---0---| x4
                                   

Chorus [Distorted]
D#|------------------------|
A#|------------------------|
F#|------------------------|
C#|-8888888888888-10---0---|
G#|-8888888888888-10---0---|
C#|-8888888888888-10---0---| x4


Verse [Clean]
D#|------------------------|
A#|------------------------|
F#|------------------------|
C#|-8888888888888-10---0---|
G#|-8888888888888-10---0---|
C#|-8888888888888-10---0---| x4

Chorus [Distorted]
D#|------------------------|
A#|------------------------|
F#|------------------------|
C#|-8888888888888-10---0---|
G#|-8888888888888-10---0---|
C#|-8888888888888-10---0---| x4

Buildup [Chorus Pedal]
D#|-------------------------------|
A#|-------------------------------|
F#|-------------------------------|
C#|-------------------------------|
G#|-------------------------------|
C#|-80-0-080-0-0800080-0-080-0-08-|

DROP [Distorted]
D#|-------------------------------------------------------------------|
A#|-------------------------------------------------------------------|
F#|-------------------------------------------------------------------|
C#|-80-0-080-0-0800080-0-080-0-0800080-0-080-0-08000-5555553-33333-33-|
G#|-80-0-080-0-0800080-0-080-0-0800080-0-080-0-08000-3333331-11111-11-|
C#|-80-0-080-0-0800080-0-080-0-0800080-0-080-0-08000------------------|

D#|---------------------------------------------------|
A#|---------------------------------------------------|
F#|---------------------------------------------------|
C#|-80-0-080-0-0800080-0-080-0-0800080-0-080-0-08000--|
G#|-80-0-080-0-0800080-0-080-0-0800080-0-080-0-08000--|
C#|-80-0-080-0-0800080-0-080-0-0800080-0-080-0-08000--|

D#|------------------------------------|
A#|------------------6666666666666666--|
F#|------------------xxxxxxxxxxxxxxxx--|
C#|-5555555555555555-3333333333333333--|
G#|-3333333333333333-------------------|
C#|------------------------------------|

Chorus [Distorted]
D#|------------------------|
A#|------------------------|
F#|------------------------|
C#|-8888888888888-10---0---|
G#|-8888888888888-10---0---|
C#|-8888888888888-10---0---| x8

There's a variety of noise at the end. No idea how to tab it.
Tap to rate this tab
# A B C D E F G H I J K L M N O P Q R S T U V W X Y Z