Song name
# A B C D E F G H I J K L M N O P Q R S T U V W X Y Z

Trustcompany - Figure 8 tab

this song looks like a lot but it isn't. it's just a lot of things repeated. 
TUNING--Db,ab,db,gb,bb,eb


intro x3
eb(--------------------------)
bb(--------------------------)
gb(--------------------------)
db(--------------------------)
ab(--6p5-5-8-5h6-555-5h6-555-)
Db(--------------------------)
   pm... . . ... ... ... ...


second intro 
eb(--------------------------------------------------)
bb(--------------------------------------------------)
gb(--------------------------------------------------)
db(--1p0-0-3-0h1-000-0h1-000-1p0-0-3-0h1-000-0h1-000-)
ab(--1p0-0-3-0h1-000-0h1-000-1p0-0-3-0h1-000-0h1-000-)
Db(--1p0-0-3-0h1-000-0h1-000-1p0-0-3-0h1-000-0h1-000-)

second intro continued
eb(------------------------------------------------)
bb(------------------------------------------------)
gb(------------------------------------------77777-)
db(--1p0-0-3-0h1-000-0h1-000-1p0-0-3-0h1-000-77777-)
ab(--1p0-0-3-0h1-000-0h1-000-1p0-0-3-0h1-000-55555-)
Db(--1p0-0-3-0h1-000-0h1-000-1p0-0-3-0h1-000-------)

verse
eb(------------------------)
bb(------------------------)
gb(--77777b~~---7-----7b~~-)
db(--77777----7---7---7----)
ab(--55555----------5-5----)
Db(------------------------)

pre-choruse x2
eb(------------------------------------)
bb(------55---66-5-5555----------------)
gb(----7----7-----------7-----7---7b~~-)
db(--7----------------------7---7-7----)
ab(-----------------------5-------5----)
Db(------------------------------------)

chorus x2
eb(-------------------)
bb(-------------------)
gb(------------5----3-)
db(--0----3----5----3-)
ab(--0----3----3----1-)
Db(--0----3-----------)

chorus (lead)
eb(------5555----5555----5555----5555----5555----5555----5555----5555-)
bb(--6666----6666----6666----6666----6666----6666----6666----6666-----)
gb(-------------------------------------------------------------------)
db(-------------------------------------------------------------------)
ab(-------------------------------------------------------------------)
Db(-------------------------------------------------------------------)

chorus (lead) continued
eb(---------------------------------------------------)
bb(--666688886666----666688886666----666688886666-----)
gb(--------------9999------------9999------------9999-)
db(---------------------------------------------------)
ab(---------------------------------------------------)
Db(---------------------------------------------------)

chorus (lead) continued
eb(----------------------)
bb(--666688886666--------)
gb(--------------9997b~~-)
db(-----------------7----)
ab(-----------------5----)
Db(----------------------)

bridge is the same as intro 2 x4


outro
eb(--------------------------------------------------)
bb(--------------------------------------------------)
gb(--------------------------------------------------)
db(--1p0-0-3-0h1-000-0h1-000-1p0-0-3-0h1-000-0h1-000-)
ab(--1p0-0-3-0h1-000-0h1-000-1p0-0-3-0h1-000-0h1-000-)
Db(--1p0-0-3-0h1-000-0h1-000-1p0-0-3-0h1-000-0h1-000-)

outro continued
eb(------------------------------------------------)
bb(------------------------------------------------)
gb(------------------------------------------77777-)
db(--1p0-0-3-0h1-000-0h1-000-1p0-0-3-0h1-000-77777-)
ab(--1p0-0-3-0h1-000-0h1-000-1p0-0-3-0h1-000-55555-)
Db(--1p0-0-3-0h1-000-0h1-000-1p0-0-3-0h1-000-------)

outro continued
eb(--------------------------------------------------)
bb(--------------------------------------------------)
gb(--------------------------------------------------)
db(--1p0-0-3-0h1-000-0h1-000-1p0-0-3-0h1-000-0h1-000-)
ab(--1p0-0-3-0h1-000-0h1-000-1p0-0-3-0h1-000-0h1-000-)
Db(--1p0-0-3-0h1-000-0h1-000-1p0-0-3-0h1-000-0h1-000-)

outro continued
eb(-------------------------------------------------------)
bb(-------------------------------------------------------)
gb(-------------------------------------------------------)
db(--1p0-0-3-0h1-000-0h1-000-1p0-0-3-0h1-000-/12-12-12-12-)
ab(--1p0-0-3-0h1-000-0h1-000-1p0-0-3-0h1-000-/12-12-12-12-)
Db(--1p0-0-3-0h1-000-0h1-000-1p0-0-3-0h1-000-/12-12-12-12-)

the lead in the chorus may be off a little. for the most part i think it's all right.
Tap to rate this tab
# A B C D E F G H I J K L M N O P Q R S T U V W X Y Z