Song name
# A B C D E F G H I J K L M N O P Q R S T U V W X Y Z

Tryo - Si La Vie Ma Mis La tab

Help us improve GuitareTab! Take a short survey!
-------------------------------------------------------------------------------
			   Si la vie m'a mis l - Tryo
-------------------------------------------------------------------------------
Tabbed by: Samantha Leibel
Email: count.yellow.highway.lines@hotmail.com

Tuning: Standard

Guitar 1:
e|---------------------------------------------------------------------------|
B|---------------------------------------------------------------------------|
G|---------------------------------------------------------------------------|
D|----2p0-------------2p0-------------2p0------------------------------------|
A|---------2p0h2----------2p0h2------------2p0h2-----------------------------|
E|-0--------------(0)------------(0)--------------3--------------------------|

Guitar 2:

Em, Em, Em, D

e|--7---------5------------------------------------------------------------------|
B|--8---------7------------------------------------------------------------------|
G|--9---------7------------------------------------------------------------------|
D|--9---------7------------------------------------------------------------------|
A|--7---------5------------------------------------------------------------------|
E|--x---------x------------------------------------------------------------------|

Parole:

Samuel, et Jonas,
ont quitt le pays.
Fatima et Marie,
ont sacrifi leur vie.
Parce qu'ils ont voulu,
s'en remettre  demain.
Dessiner l'avenir le brandir de leurs mains.

Continuez la mmoire hrite des anctres,
pour qu'on ne voit jamais sa terre... disparatre.
Cette terre... poussire... fortune du manant
la monnaie des colons,
la fiert de l'Orient.

Si la vie m'a mis l,
c'est qu'elle doit avoir ma peau !

Cette terre dserte,
qui baigna dans le sang.
Lorsque les Blancs entrrent
au grs des quatre vents.
Cette terre dfendue,
maintes et maintes fois reprise,
que nos pres ont tenue,
quand le monde lchait prise.

{Refrain:}
Si la vie m'a mis l,
c'est qu'elle doit vouloir ma peau ! (inch Allah)
Si la vie m'a mis l,
c'est qu'elle doit avoir ma peau !

Quand les jets de nos pierres,
face aux canons des chars,
taient murs de poussire
nous privant de victoire.
Un peuple dlog,
isol de son sol,
qui voudra rattraper
l'histoire en son envol.

Ici, la vie, la mort, ont le mme visage
Et l'avenir se dessine entre ruines et carnage.
Que les pages du Coran,
explosent de lumire.
Je vous implore, Allah,
ils ont vol ma terre.

{au Refrain}

Je vous envoie l'espoir,
inond de louanges.
Ils voient en vous dmon,
je vous sais tre un ange.
Nourri par les prophtes,
les plus impitoyables,
qui gravent sur nos cur,
les cendres du diable.

Moi, qui n'ai que ma vie
 offrir en cadeau,
je ferai de mon me,
le plus grand des oiseaux.
Pousser par le soleil,
(librant l'horizon)
j'userai de ma vie,
comme l'un de leurs canons.

{au Refrain}

Complainte de nos femmes,
espoir d'enfant martyrs,
qui jettent dans les flammes des lambeaux d'avenir.
Blessures... trop profondes,
pour tre panses,
comme un appel au monde
ou  la libert.

Regarde de sa main
ce que l'enfant dessine {x5}
le monde de demain
avec la Palestine .
Related for Si La Vie Ma Mis La tab