Song name
# A B C D E F G H I J K L M N O P Q R S T U V W X Y Z

Tryo - Pour Un Flirt Avec La Crise tab

Tryo - Pour Un Flirt Avec La Crise
Tabbed by: tobini
CORRECT TAB (corrected from 
http://www.ultimate-guitar.com/tabs/t/tryo/pour_un_flirt_avec_la_crise_tab.htm)

N.H.: Natural Harmonics

e|-----------7-5-7-| \
B|---------7-------|  \
G|-------7---------|   \ all N.H.
D|-----7-----------|   /
A|---7-------------|  /
E|-7---------------| /


   Bm          G             A  Bm           G             A 
e|-------10-------------------|-10/12-10--------------------| 
B|-11/12-------12-12-12-10-10-|--------------12-12-12-10-10-| 
G|----------------------------|-----------------------------| 
D|----------------------------|-----------------------------| 
A|----------------------------|-----------------------------| 
E|----------------------------|-----------------------------| 

   Bm       G            A   etc. 
e|-------10----------------|------------------|-12-10-------------| 
B|-11/12----12-12-12-10-10-|-7-7-5-5-3-3-0-3--|-------12-10-10-10-| 
G|-------------------------|------------------|-------------------| 
D|-------------------------|------------------|-------------------| 
A|-------------------------|------------------|-------------------| 
E|-------------------------|------------------|-------------------| 
                                                                   N.H.
e|-12--10---------------|-12--10----------|---------------------|---7---| 
B|----------12-10-10-10-|---------12--10--|---------------------|---7---| 
G|----------------------|-----------------|-11-9---------9-9-9--|---7---|
D|----------------------|-----------------|------12-9-12--------|---7---|
A|----------------------|-----------------|---------------------|---7---|
E|----------------------|-----------------|---------------------|---7---| 



CHORDS:

Bm           G            A            Em
e|--2--|     e|--3--|     e|--5--|     e|--7--|
B|--3--|     B|--3--|     B|--5--|     B|--8--|
G|--4--|     G|--4--|     G|--6--|     G|--9--|
D|--4--|     D|--5--|     D|--7--|     D|--9--|
A|--2--|     A|--5--|     A|--7--|     A|--7--|
E|-----|     E|--3--|     E|--5--|     E|-----|


Bm                   G            A 
Usee, laminee la populace se hisse 
       Bm                      G              A 
On est lourd de cernes mais la foule se glisse 
Dans un couloir de metro 
Les yeux rives sur l'aiguille a regarder passer le temps 
Qui se faufile comme une anguille 
Et ne cesse 
De te mettre dans le vent ... 

Em          A      G 
Tu finiras cul et chemise 
Dans ton flirt avec la crise ! 
Tu finiras cul et chemise 
Em              A 
Dans ton flirt avec la crise ! 

Solo : 
  
  Bm       G            A   etc. 
e|-------10------------------|-10/12-10------------------| 
B|-11/12------12-12-12-10-10-|------------12-12-12-10-10-| 
G|---------------------------|---------------------------| 
A|---------------------------|---------------------------| 
D|---------------------------|---------------------------| 
E|---------------------------|---------------------------| 
                                               N.H
e|-------10------------------|------------------7-| 
B|-11/12------12-12-12-10-10-|-7-7-5-5-3-3-0-3--7-| 
G|---------------------------|------------------7-| 
A|---------------------------|------------------7-| 
D|---------------------------|------------------7-| 
E|---------------------------|------------------7-| 


Bm                   G            A 
Abattu, creve, le dos courbe par ton horaire
Bm                   G            A  
Tu ne sais plus quoi faire pour te distraire 

Grincement du metro le train est a l'approche 
c'est le mouvement de foule 
qui te noie comme la houle 
Tu cours sans y penser le temps t'est compte 
Chaque minute de gagner est comme un cheque 
Bien encaisse ! 

Em         A           G
Tu finiras par lacher prise 
Dans ton flirt avec la crise ! 
Tu finiras par lacher prise 
Em                   A
Dans ton flirt avec la crise ! 

Bm G A x4

Bm               G         A
Envole d'un courant d'air 
Ecrase la gueule par terre 
On est toujours a bout de souffle 
A bout de nerfs 
Dans sa multimationale blindee mondialisee 
L'homme actif de nos tendres annees 
c'est le technocrate de son metier

Qui a ecrase ses millions de partenaires 
Qui a ecrase nos vendeurs de reverberes 
Qui fait du gringue a sa secretaire 
Et qui se retient pendant la priere ... 

Em                 A                G
Qui pratiquera son art de la maitrise 
Comment profiter de la crise 
Comment profiter des petites entreprises 
Em                 A
Dans son flirt avec la crise

Bm G A x4

Bm                 G           A
Elle est plus forte que toi la crise ... 

Solo

  Bm       G            A   etc. 
e|-------10------------------|-10/12-10------------------| 
B|-11/12------12-12-12-10-10-|------------12-12-12-10-10-| 
G|---------------------------|---------------------------| 
A|---------------------------|---------------------------| 
D|---------------------------|---------------------------| 
E|---------------------------|---------------------------| 
                                               N.H
e|-------10------------------|------------------7-| 
B|-11/12------12-12-12-10-10-|-7-7-5-5-3-3-0-3--7-| 
G|---------------------------|------------------7-| 
A|---------------------------|------------------7-| 
D|---------------------------|------------------7-| 
E|---------------------------|------------------7-| 
Tap to rate this tab
 
# A B C D E F G H I J K L M N O P Q R S T U V W X Y Z