Song name
# A B C D E F G H I J K L M N O P Q R S T U V W X Y Z

Tryo - Serre Moi tab

Intro :

e ------------------------2--------------------|
b ---0-3----------3----2----2------------------|
g ---------0-4---2------2----------------------| (x7)
d ---------------------------------------------|
a ---------------------------------------------|
e ---------------------------------------------|

e ---------------------------------------------|
b ---7--5---5-------7--5---5-------------------|
g --------7---4----------7---7--6--7-----------| (x2)
d ---------------------------------------------|
a ---------------------------------------------|
e ---------------------------------------------|


Accords :

Embrasse moi dessus bord viens mon ange retarcer le ciel...

e ---2---3---5---5-----------------------------|
b ---2---3---5---5-----------------------------|
g ---4---3---7---5-----------------------------|
d ---4---5---7---7-----------------------------|
a ---2---5---5---7-----------------------------|
e ---2---3---5---5-----------------------------|


Refrain :

Il y a des salauds qui pillent.....

e ------------------------2--------------------|
b ---0-3----------3----2----2------------------|
g ---------0-4---2------2----------------------|
d ---------------------------------------------|
a ---------------------------------------------|
e ---------------------------------------------|

wapapadada wapapadadadada.....

e ---------------------------------------------|
b ---7--5---5-------7--5---5-------------------|
g --------7---4----------7---7--6--7-----------| (x2)
d ---------------------------------------------|
a ---------------------------------------------|
e ---------------------------------------------|
Tap to rate this tab
# A B C D E F G H I J K L M N O P Q R S T U V W X Y Z