Song name
# A B C D E F G H I J K L M N O P Q R S T U V W X Y Z

Tsahi - Hall Of The Mountain King tab

///Hall of The Mountain King\\\
Play this with distortion.

1 |------------------------------|-----------------------------|
2 |------------------------------|-----------------------------|
3 |------------------------------|-----------------------------|
4 |------------------------------|---------------2-0-----------|
5 |-------0-2---2---1---1--0---0-|-------0-2---2-----2---2-2s5-|
6 |-0-2-3-----3-------2------1---|-0-2-3-----3---------3-------|

1 |------------------------------|-----------------------------|
2 |------------------------------|-----------------------------|
3 |------------------------------|-----------------------------|
4 |------------------------------|---------------2-0-----------|
5 |-------0-2---2---1---1--0---0-|-------0-2---2-----2---2-2s5-|
6 |-0-2-3-----3-------2------1---|-0-2-3-----3---------3-------|

1 |--------------------------------|---------------------------|
2 |--------------------------------|---------------------------|
3 |--------------------------------|---------------------------|
4 |-----1-2-4-1-4~~---5-2-5-4-1-4~-|-----1-2-4-1-4---5-2-5-4~~-|
5 |-2-4----------------------------|-2-4-----------------------|
6 |--------------------------------|---------------------------|

1 |------------------------------|-----------------------------|
2 |------------------------------|-----------------------------|
3 |------------------------------|-----------------------------|
4 |------------------------------|---------------2-0-----------|
5 |-------0-2---2---1---1--0---0-|-------0-2---2-----2---2-2s5-|
6 |-0-2-3-----3-------2------1---|-0-2-3-----3---------3-------|
Tap to rate this tab
# A B C D E F G H I J K L M N O P Q R S T U V W X Y Z