Song name
# A B C D E F G H I J K L M N O P Q R S T U V W X Y Z

Tsar - Band Girls Money tab

----------------------------------------------------------------------------
                            Band-Girls-Money -- Tsar
----------------------------------------------------------------------------

Tabbed by: Eric G.        I'll get the Whole song later but for now here's 
                          the Intro. ENJOY!!
Tuning: EADGBe
   
   Gtr.I     Intro.

e|-----------------------12--10--------------------------------------------|
B|------------------------------12--11b--10---------------------10----11b--|
G|--------------------------------------------12---9-------12------12----12|
D|----------------------------------------------------12-------------------|
A|-------------------------------------------------------------------------|
E|-------------------------------------------------------------------------|

   Gtr.II
                                                                  play twice
e|-------------------------------------------------------------------------|
B|-------------------------------------------------------------------------|
G|----9---9----7/-8---9---9--9---9-9---9---9---7/-8---9---9--9---9-9-----O-|
D|----9---9----7/-8---9---9--9---9-9---9---9---7/-8---9---9--9---9-9-------|
A|----7---7----5/-6---7---7--7---7-7---7---7---5/-6---7---7--7---7-7-----O-|
E|-------------------------------------------------------------------------|

  Gtr.I 

e|-------------------------------------------12--10--10-10h12--15h17-18-19-|
B|------------------------------10h11p10-----------------------------------|
G|--9-----------------9-9--12----------------------------------------------|
D|------9-9--12-12---------------------------------------------------------|
A|-------------------------------------------------------------------------|
E|-------------------------------------------------------------------------|

   Gtr.II

e|-------------------------------------------------------------------------|
B|-------------------------------------------------------------------------|
G|-------------------/-/------------------/-/------------------------------|
D|----------------O-/-/-O--------------O-/-/-O-----------------------------|
A|-----------------/-/------------------/-/--------------------------------|
E|-------------------------------------------------------------------------|

    Gtr.I

e|----17---15-----12----------------------------------12/---18-19--15-19b--|
B|-----------------------------------------------12b-----------------------|
G|-------------------------------15b------12-------------------------------|
D|------------------------------------14-----------------------------------|
A|-------------------------------------------------------------------------|
E|-------------------------------------------------------------------------|

    Gtr.II w/ distortion
                                                            play 3 times
e|-------------------------------------------------------------------------|
B|-------------------------------------------------------------------------|
G|------------------9--9---7/-8---9----7-7---------------------------------|
D|------------------9--9---7/-8---9----7-7--7---7-7------------------------|
A|------------------7--7---5/-6---7----5-5--7---7-7------------------------|
E|------------------------------------------5---5-5------------------------|



e|---19---15--19b----15--12------------------------------------------------|
B|----------------------------15--12---------------------------------------|
G|--------------------------------------15b---12--9------------------------|
D|-------------------------------------------------------------------------|
A|-------------------------------------------------------------------------|
E|-------------------------------------------------------------------------|




| /  slide up
| \  slide down
| h  hammer-on
| p  pull-off
| ~  vibrato
| +  harmonic
| x  Mute note
| b  Bend Note
============================================================================
Tap to rate this tab
# A B C D E F G H I J K L M N O P Q R S T U V W X Y Z