Song name
# A B C D E F G H I J K L M N O P Q R S T U V W X Y Z

Tsjuder - The Daemon Gate tab

-------------------------------------------------------------------------------
			  the daemon gate - tsjuder
-------------------------------------------------------------------------------

Tuning -(DGCFAd)

Riff 1
e|--------------------------------------|
B|--------------------------------------|
G|-------------9--8--------------7--6---|
D|-------------9--8--------------7--6---|
A|-------------7--6--------------5--4---|
E|-0-000-0-0-0-------0-000-0-0-0--------|
"Follow me on my darkened path
Through mountains and thorns
You are bound to leave the light behind
can you feel the appearance of death"

Riff 2
e|-----------------------------------------------|
B|---------8------------------------8------------|
G|-9---9-------9--10101010--9---9-------9--8888--|
D|----------------10101010-----------------8888--|
A|---7---7---7-----8-8-8-8----7---7---7----6666--|
E|-----------------------------------------------|
"Daemons! Open the gate!"

Riff 1b
e|--------------------------------------|
B|--------------------------------------|
G|-------------9--8--------------7--6---|
D|-------------9--8--------------7--6---|
A|-------------7--6--------------5--4---|
E|-0-000-0-0-0-------0-000-0-0-0--------|
"Enter my world beneath"


Play riff 1
"Smell the raw and rotten air
going through your veins
Feel the blood dripping
from the eternal stone walls"

Riff 3
e|------------------------------------------------------------------|
B|---------4---------------5-4------------------------------6-5-----|
G|---4-5-4---4-5-4---4-5-4-----5-4----------2-------3-2---------6-5-|
D|-2---------------2------------------3-4-3---3-4-3-----4-3---------|
A|----------------------------------1-------------------------------|
E|------------------------------------------------------------------|
"Can you hear the screams... of suffering"

Play riff 1
"Carry your soul with the strength of darkness
for no light will you ever see again
In my catacombs they'll fly
Those with no hear and love"

Play riff 2

Riff 4
e|-------------------------------------|
B|-------------------------------------|
G|-------------------------------------|
D|--------------------------------8--8-|
A|-2-222--22222-3--3--2-222-22222-6--6-|
E|-0-000--00000-1--1--0-000-00000------|
     ..   ....          ..  ....
"You will become one of them"

Play riff 1
"In the depths of deh darkest dark
I sit on my throne of evil
As my hordes of Daemons
you will serve me!"

Play riff 3

Ending
e|------|
B|-5~---| gtr 1
G|-/----|
D|-2----|
A|-2----| gtr 2
E|-0----|
Tap to rate this tab
# A B C D E F G H I J K L M N O P Q R S T U V W X Y Z