Song name
# A B C D E F G H I J K L M N O P Q R S T U V W X Y Z

Tsjuder - The Lord Of Terror tab

The tuning is 1 whole step down. Don't forget to do tremolo picking, except on riffs 2 and 4.


Riff 1
d|---------------------------------|
A|---------------------------------|
F|---------------------------------|
C|--------------7--8--9--8--9-8----|
G|-7----8--7----5--6--7--6--7-6----|x4
D|-5----6--5-----------------------|

Riff 2
d|-------------------------|
A|-------------------------|
F|-------------------------|
C|---------2-3---------9-8-|
G|---------2-3---------7-6-|x6
D|-000-000-0-1-000-000-7-6-|

Riff 3
d|---------------------------------------------|
A|---------------------------------------------|
F|---------------------------------------------|
C|-5----4-5-4-5-------5----4-5-4-5--4----7-----|
G|-3----2-3-2-3--6----3----2-3-2-3--6----5-----|x4
D|---------------4------------------4----------|

Riff 1 x10
Riff 2 x6

At the end of Riff 2
d|---|
A|---|
F|---|
C|-2-|
G|-2-|x1
D|-0-|

Before Riff 4
d|-------------------------------------------------------------------------|
A|-------------------------------------------------------------------------|
F|-------------------------------------------------------------------------|
C|---------------------------------------------------------------------5-4-|
G|------3----------------------5-4-3-----------------3-----------------5-4-|x1
D|-0----1----0----0----0----0--3-2-1--0----0----0----1----0----0----0--3-2-|

Riff 4
d|--------------------------------------------------------------------------------|
A|--------------------------------------------------------------------------------|
F|--------------------------------------------------------------------------------|
C|----------------3-----------------2-5-4-3-----------------3-----------------5-4-|
G|-2----2----2----3----2----2----2--2-5-4-3--2----2----2----3----2----2----2--5-4-|x2
D|-0----0----0----1----0----0----0--0-3-2-1--0----0----0----1----0----0----0--3-2-|

Riff 1 x6
Riff 3 x4
Riff 1 x4

Outro
d|---|
A|---|
F|---|
C|-2-|
G|-2-|x1
D|-0-|
Tap to rate this tab
 
# A B C D E F G H I J K L M N O P Q R S T U V W X Y Z