Song name
# A B C D E F G H I J K L M N O P Q R S T U V W X Y Z

Tsjuder - Sodomizing The Lamb tab

Intro Riff
d|--------------------|
A|--------------------|
F|--------------------|
C|--------------------|
G|----444444555444444-|x8
D|-000222222333222222-|

Riff 1
d|--------------------------------------------------|
A|--------------------------------------------------|
F|--------------------------------------------------|
C|----------------------------555666555---555666555-|
G|----888999888---888999888---333444333---333444333-|x4
D|-000666777666000666777666000---------000----------|

Riff 2
d|-----------------------------------|
A|-----------------------------------|
F|-----------------------------------|
C|-----101010999-------1010109109888-|
G|-77778-8-8-77766677778-8-8-78-7666-|x4
D|-0000---------4440000--------------|

Riff 3 (I did this part on the bass tabs wrong)
d|-----------------------------------------------------------------|
A|-----------------------------------------------------------------|
F|-5-5-5-5-5-5-5-5-9-9-9-9-9-9-9-9-8-8-8-8-8-8-8-8-8-8-8-8-8-8-8-8-|
C|-5-5-5-5-5-5-5-5-9-9-9-9-9-9-9-9-8-8-8-8-8-8-8-8-8-8-8-8-8-8-8-8-|
G|-3-3-3-3-3-3-3-3-7-7-7-7-7-7-7-7-6-6-6-6-6-6-6-6-6-6-6-6-6-6-6-6-|x2
D|-----------------------------------------------------------------|

Riff 4 (repeat as much as needed until Riff 2 comes in)
d|----------------------------------------------------------------------|
A|----------------------------------------------------------------------|
F|----------------------------------------------------------------------|
C|---------5555--------9999--------------------8888------------8888-----|
G|-33336666----33337777----10101010777766669999----666666669999----6666-|
D|----------------------------------------------------------------------|

At the end of riff 2
d|---|
A|---|
F|---|
C|---|
G|-7-|
D|-0-|

Before intro riff
d|-----------------|
A|-----------------|
F|-----------------|
C|-----------------|
G|-----------------|
D|-12/-----------0-|
Tap to rate this tab
 
# A B C D E F G H I J K L M N O P Q R S T U V W X Y Z