Song name
# A B C D E F G H I J K L M N O P Q R S T U V W X Y Z

Tsjuder - Kill For Satn tab

x2
d|--------------------------------------------------------------|
A|--------------------------------------------------------------|
F|--------------------------------------------------------------|
C|--------------------------------------------------------------|
G|-2-2-2-2-2-2-2-2-2-2-2-2-4---5--2-2-2-2-2-2-2-2-10-9-7-9-8--3-|
D|-0-0-0-0-0-0-0-0-0-0-0-0-2-0-3--0-0-0-0-0-0-0-0-8--7-5-7-6--1-|

d|--------------------------------------------------------------|
A|--------------------------------------------------------------|
F|--------------------------------------------------------------|
C|--------------------------------------------------------------|
G|-2-2-2-2-2-2-2-2-2-2-2-2-4---5--2-2-2-2-2-2-2-2-4-5-9-10-8----|
D|-0-0-0-0-0-0-0-0-0-0-0-0-2-0-3--0-0-0-0-0-0-0-0-2-3-7-8--6-5~~|

X2
d|------------------------------------------------------------------|
A|------------------------------------------------------------------|
F|------------------------------------------------------------------|
C|-----------------777888777------------------------777888777-------|
G|-7771010109991010---------101010777101010999101010---------101010-|
D|------------------------------------------------------------------|

X2
d|------------------------------------------------------|
A|------------------------------------------------------|
F|------------------------------------------------------|
C|--------------555666555---------------555666555666----|
G|-555888777888----------888555888777888------------888-|
D|------------------------------------------------------|

x1
d|---------------------------------|
A|---------------------------------|
F|---------------------------------|
C|-------6-------6-------6-------6-|
G|-7-8-7-4-7-8-7-4-7-8-7-4-7-8-7-4-|
D|-5-6-5---5-6-5---5-6-5---5-6-5---|

x2
d|------------------------------------------------------|
A|------------------------------------------------------|
F|------------------------------------------------------|
C|--------------555666555---------------555666555666----|
G|-555888777888----------888555888777888------------888-|
D|------------------------------------------------------|

x2
d|----------------------------------------------------|
A|----------------------------------------------------|
F|----------------------------------------------------|
C|-9--9--8------9--9--8--11--9--9--8------9--9--8--11-|
G|-7--7--6--10--7--7--6--9---7--7--6--10--7--7--6--9--|
D|-0--------8---0------------0--------8---0-----------|

x2
d|--------------------------------------------------------------------------------|
A|----------888---------------------------------888-------------------------------|
F|-------999---999---------888------555------999---999---------888---------111111-|
C|----999---------999---888------555------999---------999---888------111111-------|
G|-777---------------666------333------777---------------666------999-------------|
D|--------------------------------------------------------------------------------|

x2
d|----------------------------------------------------|
A|----------------------------------------------------|
F|----------------------------------------------------|
C|-9--9--8------9--9--8--11--9--9--8------9--9--8--11-|
G|-7--7--6--10--7--7--6--9---7--7--6--10--7--7--6--9--|
D|-0--------8---0------------0--------8---0-----------|

x4
d|--------------------------------------------------|
A|--------------------------------------------------|
F|-555555555444555444555555666666666888666555555555-|
C|-333333333222333222333333444444444666444333333333-|
G|--------------------------------------------------|
D|--------------------------------------------------|

X2
d|------------------------------------------------------------------|
A|------------------------------------------------------------------|
F|------------------------------------------------------------------|
C|-----------------777888777------------------------777888777-------|
G|-7771010109991010---------101010777101010999101010---------101010-|
D|------------------------------------------------------------------|

X2
d|------------------------------------------------------|
A|------------------------------------------------------|
F|------------------------------------------------------|
C|--------------555666555---------------555666555666----|
G|-555888777888----------888555888777888------------888-|
D|------------------------------------------------------|

x1
d|---------------------------------|
A|---------------------------------|
F|---------------------------------|
C|-------6-------6-------6-------6-|
G|-7-8-7-4-7-8-7-4-7-8-7-4-7-8-7-4-|
D|-5-6-5---5-6-5---5-6-5---5-6-5---|

x8
d|---------------------------------|
A|---------------------------------|
F|---------------------------------|
C|---------------------------------|
G|---5---5-7-8-7-5---5---5-7-8-7-5-|
D|-0-3-0-3-5-6-5-3-0-3-0-3-5-6-5-3-|

I am not %100 sure about that or the part that plays x4 after that.

x2
d|--------------------------------------------------------------|
A|--------------------------------------------------------------|
F|--------------------------------------------------------------|
C|--------------------------------------------------------------|
G|-2-2-2-2-2-2-2-2-2-2-2-2-4---5--2-2-2-2-2-2-2-2-10-9-7-9-8--3-|
D|-0-0-0-0-0-0-0-0-0-0-0-0-2-0-3--0-0-0-0-0-0-0-0-8--7-5-7-6--1-|

d|--------------------------------------------------------------|
A|--------------------------------------------------------------|
F|--------------------------------------------------------------|
C|--------------------------------------------------------------|
G|-2-2-2-2-2-2-2-2-2-2-2-2-4---5--2-2-2-2-2-2-2-2-4-5-9-10-8----|
D|-0-0-0-0-0-0-0-0-0-0-0-0-2-0-3--0-0-0-0-0-0-0-0-2-3-7-8--6-5~~|

x1
F|------------------------------|
C|-9------9------8------11------|
G|-7777777777777766666669-999999|
D|------------------------------|

x2
d|----------------------------------------------------|
A|----------------------------------------------------|
F|----------------------------------------------------|
C|-9--9--8------9--9--8--11--9--9--8------9--9--8--11-|
G|-7--7--6--10--7--7--6--9---7--7--6--10--7--7--6--9--|
D|-0--------8---0------------0--------8---0-----------|

x2
d|--------------------------------------------------------------------------------|
A|----------888---------------------------------888-------------------------------|
F|-------999---999---------888------555------999---999---------888---------111111-|
C|----999---------999---888------555------999---------999---888------111111-------|
G|-777---------------666------333------777---------------666------999-------------|
D|--------------------------------------------------------------------------------|

x2
d|----------------------------------------------------|
A|----------------------------------------------------|
F|----------------------------------------------------|
C|-9--9--8------9--9--8--11--9--9--8------9--9--8--11-|
G|-7--7--6--10--7--7--6--9---7--7--6--10--7--7--6--9--|
D|-0--------8---0------------0--------8---0-----------|

x4
d|--------------------------------------------------|
A|--------------------------------------------------|
F|-555555555444555444555555666666666888666555555555-|
C|-333333333222333222333333444444444666444333333333-|
G|--------------------------------------------------|
D|--------------------------------------------------|
Tap to rate this tab
# A B C D E F G H I J K L M N O P Q R S T U V W X Y Z