Song name
# A B C D E F G H I J K L M N O P Q R S T U V W X Y Z

Tsol - In My Head tab

TSOL - In My Head

hey i'm the one that wrote version 1 for this song, and i found a few
corrections. i am almost 100% sure this is correct.
let ring = ~
slide = /

intro
e|--------------------------|
B|--------------------------|
G|--------7~-7~-------7~-9~-|
D|--9~-9~-7~-7~-9~-9~-7~-9~-|
A|--9~-9~-5~-5~-9~-9~-5~-7~-|
E|--7~-7~-------7~-7~-------|

riff
e|------------------------------------------------------------------|
B|------------------------------------------------------------------|
G|-------9/10-9-10-9-7777-9-----------9/10-9-10-9-7777-9--14-14-14--|
D|--999--9/10-9-10-9-7777-9-77-8-999--9/10-9-10-9-7777-9--14-14-14--|
A|--999--7/-9-7--9-7-5555-7-77-8-999--7/-9-7--9-7-5555-7--12-12-12--|
E|--777---------------------55-6-777--------------------------------|

chorus
e|----------------------|
B|----------------------|
G|-----------------7----|
D|--7/9--7/9--7/9--7-7--|
A|--7/9--7/9--7/9--5-7--|
E|--5/7--5/7--5/7----5--|

fill
e|--------|
B|--------|
G|-----9--|
D|--5--9--|
A|--5--7--|
E|--3-----|

solo
e|------------------------------|
B|--------------7~-12~-14~-15~--|
G|--4~-5~-6~-7~-----------------|
D|------------------------------|
A|------------------------------|
E|------------------------------|

last note in song
e|-----|
B|-----|
G|-----|
D|--9--|
A|--9--|
E|--7--|

intro 1x
riff 2x
chorus 4x
fill 1x
chorus 4x
fill 1x
riff 2x
chorus 4x
fill 1x
solo
fill 1x
riff 2x
intro 1x
fill 1x
last note in song
Tap to rate this tab
# A B C D E F G H I J K L M N O P Q R S T U V W X Y Z