Song name
# A B C D E F G H I J K L M N O P Q R S T U V W X Y Z

Tsol - American tab

Help us improve GuitareTab! Take a short survey!
-------------------------------------------------------------------------------
			     American - T.S.O.L
-------------------------------------------------------------------------------
Tabbed by: Ryan Armstrong
Email:

Tuning: Standard

So i was on the internet looking for some american tabs and could'nt find any anywhere,
so i desided to do my own, i think this is right its a realy cool song of theirs one of
my favourites so i hope you enjoy it.

The chords used for the intro, solo 1 and outro are:
  A5   D5
e|-0----0-|
B|-0----3-|
G|-2----2-|
D|-2----0-|
A|-0----0-|
E|--------|

  Intro
e|-------------0-------------0---------------------------(0)-|
B|-------0-----0-------3-------3-------3-play--finish-on-(0)-|
G|-----2---2---------2---2-------2---2----x4-------------(2)-|
D|---2-------2-----0-------0-------0---------------------(2)-|
A|-0-------------0---------------------------------------(0)-|
E|-----------------------------------------------------------|
  Verse
e|-------------------------------------------------|
B|-------------------------------------------------|
G|-4-4-4-4-4-4-4-4-4-4-4-4-7-7-7-7-7-7-------------|Play
D|-4-4-4-4-4-4-4-4-4-4-4-4-7-7-7-7-7-7-7-7-7-7-7-7-| x4
A|-2-2-2-2-2-2-2-2-2-2-2-2-5-5-5-5-5-5-7-7-7-7-7-7-|
E|-------------------------------------5-5-5-5-5-5-|
  Chorus
e|---------------------------------|
B|---------------------------------|
G|-9-9-9-9---------7-7-7-7---------|Play
D|-9-9-9-9-9-9-9-9-7-7-7-7-7-7-7-7-| x2
A|-7-7-7-7-9-9-9-9-5-5-5-5-7-7-7-7-|
E|---------7-7-7-7---------5-5-5-5-|
  Verse
e|-------------------------------------------------|
B|-------------------------------------------------|
G|-4-4-4-4-4-4-4-4-4-4-4-4-7-7-7-7-7-7-------------|Play
D|-4-4-4-4-4-4-4-4-4-4-4-4-7-7-7-7-7-7-7-7-7-7-7-7-| x2
A|-2-2-2-2-2-2-2-2-2-2-2-2-5-5-5-5-5-5-7-7-7-7-7-7-|
E|-------------------------------------5-5-5-5-5-5-|
  Bridge solo 1
e|-------------0-------------0-----------|
B|-------0-----0-------3-------3-------3-|
G|-----2---2---------2---2-------2---2---|Play 
D|---2-------2-----0-------0-------0-----| x2
A|-0-------------0-----------------------|
E|---------------------------------------|
  Continued Solo 2
e|-------------------------------------------------------|
B|-------------------------------------------------------|
G|-4----4---4---4-4\2--7-6-------4----4---4---4-4\2------|keep picking
D|---4----4---4------------7-7/9---4----4---4-------2/16-|from the 2nd
A|-------------------------------------------------------|fret to 16th 
E|-------------------------------------------------------|fret
  Chorus
e|---------------------------------|
B|---------------------------------|
G|-9-9-9-9---------7-7-7-7---------|Play
D|-9-9-9-9-9-9-9-9-7-7-7-7-7-7-7-7-| x2
A|-7-7-7-7-9-9-9-9-5-5-5-5-7-7-7-7-|
E|---------7-7-7-7---------5-5-5-5-|
  Outro
e|-0-0-0---0-0-0---0-0-0---0-0-0---0-0-0-|
B|-0-0-0---3-3-3---0-0-0---3-3-3---0-0-0-|
G|-2-2-2---2-2-2---2-2-2---2-2-2---2-2-2-|
D|-2-2-2---0-0-0---2-2-2---0-0-0---2-2-2-|
A|-0-0-0---0-0-0---0-0-0---0-0-0---0-0-0-|
E|---------------------------------------|

Thats it, i think the outros right but maybe not if i come up with a better
version i'll let you kow I'll see ya later.


| /  slide up
| \  slide down
| h  hammer-on
| p  pull-off
| ~  vibrato
| +  harmonic
| x  Mute note
============================================================================
Related for American tab