Song name
# A B C D E F G H I J K L M N O P Q R S T U V W X Y Z

Tsol - Again tab

-------------------------------------------------------------------------------
			      	Again - T.S.O.L
-------------------------------------------------------------------------------
Tabbed by: Ryan Armstrong
Email:

Tuning: Standard
  
This is my second tab for tsol so i hope its ok.  the intro is'nt exact for time
so just list to the song to get it right. 

  Intro
e|---------------------------------------------------------|
B|---------------------------------------------------------|
G|-9-9-9-9-9-9-9-9-9-9-9-9-9-9-9-9-9-9-9-9-4-4-4-4-4-4-4-4-|
D|---------------------------------------------------------|
A|-7-7-7-7-7-7-7-7-7-7-7-7-7-7-7-7-7-7-7-7-2-2-2-2-2-2-2-2-|
E|---------------------------------------------------------|
  Continued
e|---------------------------------------------------------|
B|---------------------------------------------------------|
G|-9-9-9-9-9-9-9-9-9-9-9-9-9-9-9-9-9-9-9-9-4-4-4-4-4-4-4-4-|
D|---------------------------------------------------------|
A|-7-7-7-7-7-7-7-7-7-7-7-7-7-7-7-7-7-7-7-7-2-2-2-2-2-2-2-2-|
E|---------------------------------------------------------|
  Continued
e|---------------------------------------------------------------------|
B|---------------------------------------------------------------------|
G|-9-9-9-9-9-9-9-9-9-9\11-11-11-11-11-11-11-11/9-9-9-9-9-9-9-9-9-9\8-8-|
D|---------------------------------------------------------------------|
A|-7-7-7-7-7-7-7-7-7-7\-9--9--9--9--9--9--9--9/7-7-7-7-7-7-7-7-7-7\8-8-|
E|---------------------------------------------------------------------|
  Continued
e|-------------------------------------------------------------------------|
B|-------------------------------------------------------------------------|
G|-8-8-8-8-8-8/16-16-16-16-16-16-16-16-16-16-16-16-16-16-16-16-16-16-16-16\|
D|-------------------------------------------------------------------------|
A|-6-6-6-6-6-6/14-14-14-14-14-14-14-14-14-14-14-14-14-14-14-14-14-14-14-14\|
E|-------------------------------------------------------------------------|
  Verse
e|---------------------------------------------------------|
B|---------------------------------------------------------|
G|-9-9-9-x-9-x-9-9-9-x-9-x-9-9-----------------------------|play x2
D|-9-9-9-x-9-x-9-9-9-x-9-x-9-9-9-9-9-x-9-x-9-9-9-x-9-x-9-9-|
A|-7-7-7-7-7-7-7-7-7-7-7-7-7-7-9-9-9-x-9-x-9-9-9-x-9-x-9-9-|
E|-----------------------------7-7-7-7-7-7-7-7-7-7-7-7-7-7-|
  i think this is right like the intro just listen to the song 
  to get it right.
  
  Chorus
e|-----------------------------------------------|
B|-----------------------------------------------|
G|-----------------------------------------------|
D|-7-7-7-7-7-5-5-5-5-5-2---7-7-7-7-7-5-5-5-5-5-2-|
A|-7-7-7-7-7-5-5-5-5-5-2---7-7-7-7-7-5-5-5-5-5-2-|
E|-5-5-5-5-5-3-3-3-3-3-0---5-5-5-5-5-3-3-3-3-3-0-|
  Continued
e|-------------------------------|
B|-------------------------------|
G|---------------------4-4-4-4-4-|
D|-7-7-7-7-7-5-5-5-5-5-4-4-4-4-4-|
A|-7-7-7-7-7-5-5-5-5-5-2-2-2-2-2-|
E|-5-5-5-5-5-3-3-3-3-3-----------|
  Pre verse
e|---------------------------------------------------------|
B|---------------------------------------------------------|
G|-9-9-9-9-9-9-9-9-9-9-9-9-9-9-9-9-9-9-9-9-4-4-4-4-4-4-4-4-|
D|---------------------------------------------------------|
A|-7-7-7-7-7-7-7-7-7-7-7-7-7-7-7-7-7-7-7-7-2-2-2-2-2-2-2-2-|
E|---------------------------------------------------------|
  Verse
e|---------------------------------------------------------|
B|---------------------------------------------------------|
G|-9-9-9-x-9-x-9-9-9-x-9-x-9-9-----------------------------|play x4
D|-9-9-9-x-9-x-9-9-9-x-9-x-9-9-9-9-9-x-9-x-9-9-9-x-9-x-9-9-|
A|-7-7-7-7-7-7-7-7-7-7-7-7-7-7-9-9-9-x-9-x-9-9-9-x-9-x-9-9-|
E|-----------------------------7-7-7-7-7-7-7-7-7-7-7-7-7-7-|
  Chorus
e|-----------------------------------------------|
B|-----------------------------------------------|
G|-----------------------------------------------|
D|-7-7-7-7-7-5-5-5-5-5-2---7-7-7-7-7-5-5-5-5-5-2-|
A|-7-7-7-7-7-5-5-5-5-5-2---7-7-7-7-7-5-5-5-5-5-2-|
E|-5-5-5-5-5-3-3-3-3-3-0---5-5-5-5-5-3-3-3-3-3-0-|
  Continued
e|-------------------------------|
B|-------------------------------|
G|---------------------4-4-4-4-4-|
D|-7-7-7-7-7-5-5-5-5-5-4-4-4-4-4-|
A|-7-7-7-7-7-5-5-5-5-5-2-2-2-2-2-|
E|-5-5-5-5-5-3-3-3-3-3-----------|
  Bridge
e|---------------------------------------------------------------------|
B|---------------------------------------------------------------------|
G|-9-9-9-9-9-9-9-9-9-9\11-11-11-11-11-11-11-11/9-9-9-9-9-9-9-9-9-9\8-8-|
D|---------------------------------------------------------------------|
A|-7-7-7-7-7-7-7-7-7-7\-9--9--9--9--9--9--9--9/7-7-7-7-7-7-7-7-7-7\8-8-|
E|---------------------------------------------------------------------|
  Continued
e|-------------------------------------------------------------------------|
B|-------------------------------------------------------------------------|
G|-8-8-8-8-8-8/16-16-16-16-16-16-16-16-16-16-16-16-16-16-16-16-16-16-16-16\|
D|-------------------------------------------------------------------------|
A|-6-6-6-6-6-6/14-14-14-14-14-14-14-14-14-14-14-14-14-14-14-14-14-14-14-14\|
E|-------------------------------------------------------------------------|
  Chorus
e|-----------------------------------------------|
B|-----------------------------------------------|
G|-----------------------------------------------|
D|-7-7-7-7-7-5-5-5-5-5-2---7-7-7-7-7-5-5-5-5-5-2-|
A|-7-7-7-7-7-5-5-5-5-5-2---7-7-7-7-7-5-5-5-5-5-2-|
E|-5-5-5-5-5-3-3-3-3-3-0---5-5-5-5-5-3-3-3-3-3-0-|
  Continued
e|---------------------------------|
B|---------------------------------|
G|---------------------4-4-4-4-4---|
D|-7-7-7-7-7-5-5-5-5-5-4-4-4-4-4-2-|
A|-7-7-7-7-7-5-5-5-5-5-2-2-2-2-2-2-|
E|-5-5-5-5-5-3-3-3-3-3-----------0-|

there it is i hope you like it, its a cool song just listen to it to get it right i'll see ya later.

| /  slide up
| \  slide down
| h  hammer-on
| p  pull-off
| ~  vibrato
| +  harmonic
| x  Mute note
===============================================================================
Tap to rate this tab
# A B C D E F G H I J K L M N O P Q R S T U V W X Y Z