Song name
# A B C D E F G H I J K L M N O P Q R S T U V W X Y Z

Tsol - Thoughts Of Yesterday tab

Tuning: Standard

|P = palm mute
|X = mute note


e|-----------------------------------------------------------------------------|
B|-------------------------0-----0-----0-----0--------8-----8-----8-----8------|
G|-------0-----0-----0-------0-----0-----0------0-------0-----0-----0-----0----|
D|-----0-----2-----4----6------6-----6-----6-------7------7-----7-----7--------|
A|-0-1-----3-----5------7--------------------------8-------------------------8-|
E|-----------------------------------------------------------------------------|

e|----7-----7-----7-----7------0-----0-----0-----0-----------------------------|
B|------0-----0-----0-----0------5-----5-----5-----5-----0-----0-----0-----0---|
G|--------0-----0-----0------------0-----0-----0-----------0-----0-----0-----0-|
D|-6-------------------------4-----------------------4-6-----6-----6-----6-----|
A|-7-------------------------5-------------------------7-----------------------|
E|-----------------------------------------------------------------------------|

e|--------------------------------7-----7-----7-----7------0--------|
B|----8-----8-----8-----8-----------0-----0-----0------0---5--------|
G|------0-----0-----0-----0-----------0-----0-----0--------0--------|
D|-7------7-----7-----7--------6---------------------------4--------|
A|-8-------------------------8-7---------------------------5--------|
E|------------------------------------------------------------------|


      P P P P P     P P P P P P        P P       P     P P       P P
e|-------------------------------------------------------------------------|
B|-------------------------------------------------------------------------|
G|-------------------------------------------------------------------------|
D|-6--6-6-6-6-6-6---6-6-6-6-6-6-----7--7-7-10-10-7-7---7-7-10-10-7-7-------|
A|-7--7-7-7-7-7-7---7-7-7-7-7-7-----8--8-8--8--8-8-8---8-8--8--8-8-8-------|
E|-7--7-7-7-7-7-7---7-7-7-7-7-7-----8--8-8--8--8-8-8---8-8--8--8-8-8-------|

   I hear them walking down.....    Footsteps in the halls of time


      P P     P    P P     P P    P P   P P   P P    
e|-------------------------------------------------------------------|
B|-------------------------------------------------------------------|
G|--------------------------------7-7-7-7-7-7-7-7-7--5--4--5---------|
D|-6--6-6-9-6-6-6--6-6-9-6-6-6----7-7-7-7-7-7-7-7-X--X--X--X---------|
A|-7--7-7-7-7-7-7--7-7-7-7-7-7----5-5-5-5-5-5-5-5-5--3--2--3---------|
E|-7--7-7-7-7-7-7--7-7-7-7-7-7---------------------------------------|

  Faintly I see their faces       On the back roads of my mind


      P P   P P     P P   P P P        P P      P     P P      P 
e|-------------------------------------------------------------------------|
B|-------------------------------------------------------------------------|
G|-------------------------------------------------------------------------|
D|-6--6-6-9-6-6-6---6-6-9-6-6-6-----7--7-7-10-7-7-7---7-7-10-7-7-7---------|
A|-7--7-7-7-7-7-7---7-7-7-7-7-7-----8--8-8--8-8-8-8---8-8--8-8-8-8---------|
E|-7--7-7-7-7-7-7---7-7-7-7-7-7-----8--8-8--8-8-8-8---8-8--8-8-8-8---------|

  Words in the darkness...          Raping me with their thoughtlessness


      P P     P     P P     P P    Let ring...    
e|-----------------------------------------------------|
B|-----------------------------------------------------|
G|---------------------------------7-------------------|
D|-6--6-6-9-6-6-6---6-6-9-6-6-6----7-------------------|
A|-7--7-7-7-7-7-7---7-7-7-7-7-7----5-------------------|
E|-7--7-7-7-7-7-7---7-7-7-7-7-7------------------------|

  Dreams I can't clear...         I feel them calling to me

e|------------------------------------------------|
B|------0-----0-----0-----0-------8------8--------|
G|--------0-----0-----0------0----0------0--------|
D|---6------6-----6-----6---------7------7--------|
A|---7--------------------------7-8------8--------|
E|------------------------------------------------|

e|----7-----7-----7-----7-------------------------|
B|------0-----0-----0------0-----5------5---------|
G|--------0-----0-----0------0---0------0---------|
D|-6-----------------------------4------4---------|
A|-7---------------------------7-5------5---------|
E|------------------------------------------------|

e|------------------------------------------------|
B|------0-----0-----0-----0-------8------8--------|
G|--------0-----0-----0------0----0------0--------|
D|---6------6-----6-----6---------7------7--------|
A|---7--------------------------7-8------8--------|
E|------------------------------------------------|

e|----7-----7-----7-----7-------------------------|
B|------0-----0-----0------0-----5------5---------|
G|--------0-----0-----0------0---0------0---------|
D|-6-----------------------------4------4---------|
A|-7---------------------------7-5------5---------|
E|------------------------------------------------|

      P P   P P     P P   P P P        P P      P     P P      P P
e|-------------------------------------------------------------------------|
B|-------------------------------------------------------------------------|
G|-------------------------------------------------------------------------|
D|-6--6-6-9-6-6-6---6-6-9-6-6-6-----7--7-7-10-7-7-7---7-7-10-7-7-7---------|
A|-7--7-7-7-7-7-7---7-7-7-7-7-7-----8--8-8--8-8-8-8---8-8--8-8-8-8---------|
E|-7--7-7-7-7-7-7---7-7-7-7-7-7-----8--8-8--8-8-8-8---8-8--8-8-8-8---------|

  Naked light dance shadows...      I lay alone with a memory


      P P     P     P P     P P    
e|-------------------------------------------------------------|
B|-------------------------------------------------------------|
G|----------------------------------7--7---7-7-7--8--9--10-----|
D|-6--6-6-9-6-6-6---6-6-9-6-6-6-----X--X---X-X-X--X--X---X-----|
A|-7--7-7-7-7-7-7---7-7-7-7-7-7-----5--5---5-5-5--6--7---8-----|
E|-7--7-7-7-7-7-7---7-7-7-7-7-7--------------------------------|

  All my friends have died...      I live my life for thoughts of yesterday


      P P   P P     P P   P P P        P P      P     P P      P P
e|-------------------------------------------------------------------------|
B|-------------------------------------------------------------------------|
G|-------------------------------------------------------------------------|
D|-6--6-6-9-6-6-6---6-6-9-6-6-6-----7--7-7-10-7-7-7---7-7-10-7-7-7---------|
A|-7--7-7-7-7-7-7---7-7-7-7-7-7-----8--8-8--8-8-8-8---8-8--8-8-8-8---------|
E|-7--7-7-7-7-7-7---7-7-7-7-7-7-----8--8-8--8-8-8-8---8-8--8-8-8-8---------|

  Away from the feelings...          If I could take back all the things...


      P P     P     P P     P P    P P   P P   P P   P P 
e|--------------------------------------------------------------|
B|--------------------------------------------------------------|
G|---------------------------------7-7-7-7-7-7-7-7-7-7-7-7------|
D|-6--6-6-9-6-6-6---6-6-9-6-6-6----7-7-7-7-7-7-7-7-7-7-7-7------|
A|-7--7-7-7-7-7-7---7-7-7-7-7-7----5-5-5-5-5-5-5-5-5-5-5-5------|
E|-7--7-7-7-7-7-7---7-7-7-7-7-7---------------------------------|

   Away from the heartache...      Wish I could go back to


e|--8--8--6-6-6--5-5-5--6-6-6----8--8--6-6-6--5-5-5--6-6-6-------|
B|--8--8--6-6-6--5-5-5--6-6-6----8--8--6-6-6--5-5-5--6-6-6-------|
G|--8--8--6-6-6--5-5-5--6-6-6----8--8--6-6-6--5-5-5--6-6-6-------|
D|-10-10--8-8-8--7-7-7--8-8-8---10-10--8-8-8--7-7-7--8-8-8-------|
A|-10-10--8-8-8--7-7-7--8-8-8---10-10--8-8-8--7-7-7--8-8-8-------|
E|--8--8--6-6-6--5-5-5--6-6-6----8--8--6-6-6--5-5-5--6-6-6-------|
   
    I watch them playing...      Watching, waiting, silent there
   
                                              Let ring...
e|--8--8--6-6-6--5-5-5--6-6-6----8--8--6-6-6----------------|
B|--8--8--6-6-6--5-5-5--6-6-6----8--8--6-6-6----------------|
G|--8--8--6-6-6--5-5-5--6-6-6----8--8--6-6-6--9-------------|
D|-10-10--8-8-8--7-7-7--8-8-8---10-10--8-8-8--9-------------|
A|-10-10--8-8-8--7-7-7--8-8-8---10-10--8-8-8--7-------------|
E|--8--8--6-6-6--5-5-5--6-6-6----8--8--6-6-6----------------|

   Children running...           I look back and...


e|-------------------------------------------------------------------------------|
B|-------------------------0-----0-----0-----0---------8-----8-----8-----8-------|
G|-------0-----0-----0-------0-----0-----0------0--------0-----0-----0------0----|
D|-----0-----2-----4----6------6-----6-----6--------7------7-----7-----7---------|
A|-0-1-----3-----5------7-------------------------7-8--------------------------8-|
E|-------------------------------------------------------------------------------|

e|----7-----7-----7-----7------0-----0-----0-----0-----------------------------|
B|------0-----0-----0-----0------5-----5-----5-----5-----0-----0-----0-----0---|
G|--------0-----0-----0------------0-----0-----0-----------0-----0-----0-----0-|
D|-6-------------------------4-----------------------4-6-----6-----6-----6-----|
A|-7-------------------------5-------------------------7-----------------------|
E|-----------------------------------------------------------------------------|

e|--------------------------------7-----7-----7-----7---------0----0-----|
B|----8-----8-----8-----8-----------0-----0-----0------0------5----5-----|
G|------0-----0-----0-----0-----------0-----0-----0-----------0----0-----|
D|-7------7-----7-----7--------6---------------------------4-------4-----|
A|-8-------------------------8-7---------------------------5-------5-----|
E|-----------------------------------------------------------------------|

e|--------------------------------------------------------------------------|
B|--------------------------------------------------------------------------|
G|--13--13-13-13-13-13--9--9-9-9-9-9-9--14--14-14-14-14-14--8--8-8-8-8-8-8--|
D|---X---X--X--X--X--X--X--X-X-X-X-X-X---X---X--X--X--X--X--X--X-X-X-X-X-X--|
A|--11--11-11-11-11-11--7--7-7-7-7-7-7--12--12-12-12-12-12--6--6-6-6-6-6-6--|
E|--------------------------------------------------------------------------|

e|-------------------------------------------------------------------|
B|-------------------------------------------------------------------|
G|--13--13-13-13-13-13--9--9-9-9-9-9-9---7--7-5--5-3--3-3-3-5--7-----|
D|---X---X--X--X--X--X--X--X-X-X-X-X-X---X--X-X--X-X--X-X-X-X--X-----|
A|--11--11-11-11-11-11--7--7-7-7-7-7-7---5--5-3--3-1--1-1-1-3--5-----|
E|-------------------------------------------------------------------|

e|--------------------------------------------------------------------------|
B|--------------------------------------------------------------------------|
G|--13--13-13-13-13-13--9--9-9-9-9-9-9--14--14-14-14-14-14--8--8-8-8-8-8-8--|
D|---X---X--X--X--X--X--X--X-X-X-X-X-X---X---X--X--X--X--X--X--X-X-X-X-X-X--|
A|--11--11-11-11-11-11--7--7-7-7-7-7-7--12--12-12-12-12-12--6--6-6-6-6-6-6--|
E|--------------------------------------------------------------------------|

                                         Let ring...
e|------------------------------------------------------|
B|------------------------------------------------------|
G|--13--13-13-13-13-13--9--9-9-9-9-9-9---7--------------|
D|---X---X--X--X--X--X--X--X-X-X-X-X-X---7--------------|
A|--11--11-11-11-11-11--7--7-7-7-7-7-7---5--------------|
E|------------------------------------------------------|
Tap to rate this tab
 
# A B C D E F G H I J K L M N O P Q R S T U V W X Y Z