Song name
# A B C D E F G H I J K L M N O P Q R S T U V W X Y Z

Tsol - Code Blue tab

-----------------------------|
-----------------------------|
-2-2---2-2--5-5--4-4-4--2-2--|
-2-2---2-2--5-5--4-4-4--2-2--|
-----------------------------|
-----------------------------|


-----------------------------------------------------------|
-----------------------------------------------------------|
--0------0-----0-----0-------0-----0------0----0-----------|
-2--2--1--1--0--0--1--1-----2--2--1--1--0---0--1-----------|
-----------------------------------------------------------|
-----------------------------------------------------------|


Verse:
---------------------------------------------------------|
---------------------------------------------------------|
-7--7-7-7-7--7-7--12---5--5--7--7-7-7-7--7-7--12---5--5--|
-7--7-7-7-7--7-7--12---5--5--7--7-7-7-7--7-7--12---5--5--|
-5--5-5-5-5--5-5--10---3--3--5--5-5-5-5--5-5--10---3--3--|
---------------------------------------------------------|


---------------------------------------------------------|
---------------------------------------------------------|
-7--7-7-7-7--7-7--12---5--5--7--7-7-7-7--7-7--12---5--5--|
-7--7-7-7-7--7-7--12---5--5--7--7-7-7-7--7-7--12---5--5--|
-5--5-5-5-5--5-5--10---3--3--5--5-5-5-5--5-5--10---3--3--|
---------------------------------------------------------|


---------------------------------------------------------|
---------------------------------------------------------|
-7--7-7-7-7--7-7--12---5--5--7--7-7-7-7--7-7--12---5--5--|
-7--7-7-7-7--7-7--12---5--5--7--7-7-7-7--7-7--12---5--5--|
-5--5-5-5-5--5-5--10---3--3--5--5-5-5-5--5-5--10---3--3--|
---------------------------------------------------------|


---------------------------------------------------------|
---------------------------------------------------------|
-7--7-7-7-7--7-7--12---5--5--7--7-7-7-7--7-7--12---5--5--|
-7--7-7-7-7--7-7--12---5--5--7--7-7-7-7--7-7--12---5--5--|
-5--5-5-5-5--5-5--10---3--3--5--5-5-5-5--5-5--10---3--3--|
---------------------------------------------------------|


---------------------------------------------------------|
---------------------------------------------------------|
-7--7-7-7-7--7-7--12---5--5--7--7-7-7-7--7-7--12---5--5--|
-7--7-7-7-7--7-7--12---5--5--7--7-7-7-7--7-7--12---5--5--|
-5--5-5-5-5--5-5--10---3--3--5--5-5-5-5--5-5--10---3--3--|
---------------------------------------------------------|


Chorus:
---------------------------------------------------------------------|
---------------------------------------------------------------------|
-9-9--9-9-9-9--9-9---5-5--5-5-5-5--5-5---7-7--7-7-7-7--7-7--7-7-7-7--|
-9-9--9-9-9-9--9-9---5-5--5-5-5-5--5-5---7-7--7-7-7-7--7-7--7-7-7-7--|
-7-7--7-7-7-7--7-7---3-3--3-3-3-3--3-3---5-5--5-5-5-5--5-5--5-5-5-5--|
---------------------------------------------------------------------|


---------------------------------------------------------------------|
---------------------------------------------------------------------|
-9-9--9-9-9-9--9-9---5-5--5-5-5-5--5-5---7-7--7-7-7-7--7-7--7-7-7-7--|
-9-9--9-9-9-9--9-9---5-5--5-5-5-5--5-5---7-7--7-7-7-7--7-7--7-7-7-7--|
-7-7--7-7-7-7--7-7---3-3--3-3-3-3--3-3---5-5--5-5-5-5--5-5--5-5-5-5--|
---------------------------------------------------------------------|


---------------------------------------------------------------------|
---------------------------------------------------------------------|
-9-9--9-9-9-9--9-9---5-5--5-5-5-5--5-5---7-7--7-7-7-7--7-7--7-7-7-7--|
-9-9--9-9-9-9--9-9---5-5--5-5-5-5--5-5---7-7--7-7-7-7--7-7--7-7-7-7--|
-7-7--7-7-7-7--7-7---3-3--3-3-3-3--3-3---5-5--5-5-5-5--5-5--5-5-5-5--|
---------------------------------------------------------------------|


---------------------------------------------|
---------------------------------------------|
-9-9--9-9-9-9--9-9---5-5--5-5-5-5--5-5---12--|
-9-9--9-9-9-9--9-9---5-5--5-5-5-5--5-5---12--|
-7-7--7-7-7-7--7-7---3-3--3-3-3-3--3-3---10--|
---------------------------------------------|


Bridge:
------------------------------------------------------------------|
------------------------------------------------------------------|
---0------0------0-------0---------0------0------0------0---------|
-2---2--1---1--0---0---1---1-----2---2--1---1--0---0--1---1-------|
------------------------------------------------------------------|
------------------------------------------------------------------|


------------------------------------------------------------------|
------------------------------------------------------------------|
---0------0------0-------0---------0------0------0------0---------|
-2---2--1---1--0---0---1---1-----2---2--1---1--0---0--1---1-------|
------------------------------------------------------------------|
------------------------------------------------------------------|


Chorus (Half Speed):
---------------------------------------------------------------------|
---------------------------------------------------------------------|
-9-9--9-9-9-9--9-9---5-5--5-5-5-5--5-5---7-7--7-7-7-7--7-7--7-7-7-7--|
-9-9--9-9-9-9--9-9---5-5--5-5-5-5--5-5---7-7--7-7-7-7--7-7--7-7-7-7--|
-7-7--7-7-7-7--7-7---3-3--3-3-3-3--3-3---5-5--5-5-5-5--5-5--5-5-5-5--|
---------------------------------------------------------------------|


---------------------------------------------------------------------|
---------------------------------------------------------------------|
-9-9--9-9-9-9--9-9---5-5--5-5-5-5--5-5---7-7--7-7-7-7--7-7--7-7-7-7--|
-9-9--9-9-9-9--9-9---5-5--5-5-5-5--5-5---7-7--7-7-7-7--7-7--7-7-7-7--|
-7-7--7-7-7-7--7-7---3-3--3-3-3-3--3-3---5-5--5-5-5-5--5-5--5-5-5-5--|
---------------------------------------------------------------------|


-2--3-2--0-2-3-2-------------|
-3--3-3--3-3-3-3-------------|
-----------------------------|
-----------------------------|
-----------------------------|
-----------------------------|


---------------------------------------------------------------------|
---------------------------------------------------------------------|
-9-9--9-9-9-9--9-9---5-5--5-5-5-5--5-5---7-7--7-7-7-7--7-7--7-7-7-7--|
-9-9--9-9-9-9--9-9---5-5--5-5-5-5--5-5---7-7--7-7-7-7--7-7--7-7-7-7--|
-7-7--7-7-7-7--7-7---3-3--3-3-3-3--3-3---5-5--5-5-5-5--5-5--5-5-5-5--|
---------------------------------------------------------------------|


---------------------------------------------|
---------------------------------------------|
-9-9--9-9-9-9--9-9---5-5--5-5-5-5--5-5---12--|
-9-9--9-9-9-9--9-9---5-5--5-5-5-5--5-5---12--|
-7-7--7-7-7-7--7-7---3-3--3-3-3-3--3-3---10--|
---------------------------------------------|


Verse:
---------------------------------------------------------|
---------------------------------------------------------|
-7--7-7-7-7--7-7--12---5--5--7--7-7-7-7--7-7--12---5--5--|
-7--7-7-7-7--7-7--12---5--5--7--7-7-7-7--7-7--12---5--5--|
-5--5-5-5-5--5-5--10---3--3--5--5-5-5-5--5-5--10---3--3--|
---------------------------------------------------------|


---------------------------------------------------------|
---------------------------------------------------------|
-7--7-7-7-7--7-7--12---5--5--7--7-7-7-7--7-7--12---5--5--|
-7--7-7-7-7--7-7--12---5--5--7--7-7-7-7--7-7--12---5--5--|
-5--5-5-5-5--5-5--10---3--3--5--5-5-5-5--5-5--10---3--3--|
---------------------------------------------------------|


---------------------------------------------------------|
---------------------------------------------------------|
-7--7-7-7-7--7-7--12---5--5--7--7-7-7-7--7-7--12---5--5--|
-7--7-7-7-7--7-7--12---5--5--7--7-7-7-7--7-7--12---5--5--|
-5--5-5-5-5--5-5--10---3--3--5--5-5-5-5--5-5--10---3--3--|
---------------------------------------------------------|


---------------------------------------------------------|
---------------------------------------------------------|
-7--7-7-7-7--7-7--12---5--5--7--7-7-7-7--7-7--12---5--5--|
-7--7-7-7-7--7-7--12---5--5--7--7-7-7-7--7-7--12---5--5--|
-5--5-5-5-5--5-5--10---3--3--5--5-5-5-5--5-5--10---3--3--|
---------------------------------------------------------|


---------------------------------------------------------|
---------------------------------------------------------|
-7--7-7-7-7--7-7--12---5--5--7--7-7-7-7--7-7--12---5--5--|
-7--7-7-7-7--7-7--12---5--5--7--7-7-7-7--7-7--12---5--5--|
-5--5-5-5-5--5-5--10---3--3--5--5-5-5-5--5-5--10---3--3--|
---------------------------------------------------------|


Chorus:
---------------------------------------------------------------------|
---------------------------------------------------------------------|
-9-9--9-9-9-9--9-9---5-5--5-5-5-5--5-5---7-7--7-7-7-7--7-7--7-7-7-7--|
-9-9--9-9-9-9--9-9---5-5--5-5-5-5--5-5---7-7--7-7-7-7--7-7--7-7-7-7--|
-7-7--7-7-7-7--7-7---3-3--3-3-3-3--3-3---5-5--5-5-5-5--5-5--5-5-5-5--|
---------------------------------------------------------------------|


---------------------------------------------------------------------|
---------------------------------------------------------------------|
-9-9--9-9-9-9--9-9---5-5--5-5-5-5--5-5---7-7--7-7-7-7--7-7--7-7-7-7--|
-9-9--9-9-9-9--9-9---5-5--5-5-5-5--5-5---7-7--7-7-7-7--7-7--7-7-7-7--|
-7-7--7-7-7-7--7-7---3-3--3-3-3-3--3-3---5-5--5-5-5-5--5-5--5-5-5-5--|
---------------------------------------------------------------------|


---------------------------------------------------------------------|
---------------------------------------------------------------------|
-9-9--9-9-9-9--9-9---5-5--5-5-5-5--5-5---7-7--7-7-7-7--7-7--7-7-7-7--|
-9-9--9-9-9-9--9-9---5-5--5-5-5-5--5-5---7-7--7-7-7-7--7-7--7-7-7-7--|
-7-7--7-7-7-7--7-7---3-3--3-3-3-3--3-3---5-5--5-5-5-5--5-5--5-5-5-5--|
---------------------------------------------------------------------|


---------------------------------------------|
---------------------------------------------|
-9-9--9-9-9-9--9-9---5-5--5-5-5-5--5-5---12--|
-9-9--9-9-9-9--9-9---5-5--5-5-5-5--5-5---12--|
-7-7--7-7-7-7--7-7---3-3--3-3-3-3--3-3---10--|
---------------------------------------------|



Tap to rate this tab
 
# A B C D E F G H I J K L M N O P Q R S T U V W X Y Z