Song name
# A B C D E F G H I J K L M N O P Q R S T U V W X Y Z

Tsol - You Dont Have To Die tab

intro:
 
e[-----------------------]
B[-----------------------]
G[-----------------------] X2
D[-------88--------------]
A[--8-88-66-9------------]
E[--6-66----7-...let ring]

 verse:

e[----------------------------------------------------]
B[----------------------------------------------------]
G[----------------------------------------------------] X2
D[----------------------------------------------------] 
A[-------66-----------------------66------------------]
E[--6-66----7-777-11-11-11-9--6-66----7-777-11-11-9-7-]
 
 
e[---------------------------]
B[---------------------------]
G[---------------------------] X6
D[-------88------------------] 
A[--8-88-66-9-999-13-13-11-9-]
E[--6-66----7-777-11-11-9--7-]



e[----------------------------]
B[----------------------------]
G[----------------------------]
D[----------------------------]
A[--8-------------8\-6-4-bend-]
E[--6-...let ring-6\-4--------]

 chorus:

e[--------------------------------------]
B[--------------------------------------]
G[--------------------------------------]
D[-8-8-888-11-11-10-10-10-66-666-66-666-] X4
A[-6-6-666-9- 9- 8- 8- 8--44-444-44-444-]
E[--------------------------------------]

 

now just reapeat this there is a simple
solo just listen to the song and you could probally figure it out

lyrics:

It's 1980 and things aren't so steady
Now you got four years to live
Are you going to be
The next one standing in the draft
Line

Well you better say your prayers son
Cause it's now or never
You don't have to be
Their puppet boy

YOU DON'T HAVE TO DIE

Sooner or later, you'll give, it a try
It's now or never, think of something to do with your life. 
Tap to rate this tab
# A B C D E F G H I J K L M N O P Q R S T U V W X Y Z