Song name
# A B C D E F G H I J K L M N O P Q R S T U V W X Y Z

Tsol - Being In Love tab

-----------------------------------------------------------------------------
			    Being In Love - T.S.O.L.
-----------------------------------------------------------------------------
Tabbed by: greendaypunkrox
Email: jjjamadori@aol.com

Tuning: Standard

Intro:
e|---------------------------------------------------------------------------|
B|---------------------------------------------------------------------------|
G|-----------------8-88---5-555----------------------------------------------|
D|--8-8-----5-55---8-88---5-555---(x4)---------------------------------------|
A|--8-8-----5-55---6-66---3-333----------------------------------------------|
E|--6-6--0--3-33-------------------------------------------------------------|

Verse:
e|---------------------------------------------------------------------------|
B|----***************----*---*-----------------------------------------------|
G|--5-555555555555555--8-8-8-8-88--------------------------------------------|
D|--5-555555555555555--8-8-8-8-88---8-8888888--------------------------------|
A|--3-333333333333333--6-6-6-6-66---8-8888888--------------------------------|
E|----------------------------------6-6666666--------------------------------|

Chorus:
e|---------------------------------------------------------------------------|
B|---------------------------------------------------------------------------|
G|--101010----------8-8888888--------101010----------------------------------|
D|--101010-10-1010--8-8888888--(x3)--101010-101010--888888888888888888888888-|
A|--8-8-8--10-1010--6-6666666--------8-8-8--101010--888888888888888888888888-|
E|---------8--8-8---------------------------8-8-8---666666666666666666666666-|

Verse 2:
e|---------------------------------------------------------------------------|
B|----***************----*---*-----------------------------------------------|
G|--5-555555555555555--8-8-8-8-88--------------------------------------------|
D|--5-555555555555555--8-8-8-8-88---8-8888888--------------------------------|
A|--3-333333333333333--6-6-6-6-66---8-8888888--------------------------------|
E|----------------------------------6-6666666--------------------------------|

Chorus:
e|---------------------------------------------------------------------------|
B|---------------------------------------------------------------------------|
G|--101010----------8-8888888--------101010----------------------------------|
D|--101010-10-1010--8-8888888--(x3)--101010-101010--888888888888888888888888-|
A|--8-8-8--10-1010--6-6666666--------8-8-8--101010--888888888888888888888888-|
E|---------8--8-8---------------------------8-8-8---666666666666666666666666-|

Same As Intro:
e|---------------------------------------------------------------------------|
B|---------------------------------------------------------------------------|
G|-----------------8-88---5-555----------------------------------------------|
D|--8-8-----5-55---8-88---5-555---(x4)---------------------------------------|
A|--8-8-----5-55---6-66---3-333----------------------------------------------|
E|--6-6--0--3-33-------------------------------------------------------------|

Bridge:
e|---------------------------------------------------------------------------|
B|----****************************-------------------------------------------|
G|--10-1010101010101010101010101010------------------------------------------|
D|--10-1010101010101010101010101010----(x4)----------------------------------|
A|--8--8-8-8-8-8-8-8-8-8-8-8-8-8-8-------------------------------------------|
E|---------------------------------------------------------------------------|

Verse 2:
e|---------------------------------------------------------------------------|
B|----***************----*---*-----------------------------------------------|
G|--5-555555555555555--8-8-8-8-88--------------------------------------------|
D|--5-555555555555555--8-8-8-8-88---8-8888888--------------------------------|
A|--3-333333333333333--6-6-6-6-66---8-8888888--------------------------------|
E|----------------------------------6-6666666--------------------------------|

Chorus:
e|---------------------------------------------------------------------------|
B|---------------------------------------------------------------------------|
G|--101010----------8-8888888--------101010----------------------------------|
D|--101010-10-1010--8-8888888--(x3)--101010-101010--888888888888888888888888-|
A|--8-8-8--10-1010--6-6666666--------8-8-8--101010--888888888888888888888888-|
E|---------8--8-8---------------------------8-8-8---666666666666666666666666-|

End On:
e|---------------------------------------------------------------------------|
B|---------------------------------------------------------------------------|
G|--10/----------------------------------------------------------------------|
D|--10/----------------------------------------------------------------------|
A|--8-/----------------------------------------------------------------------|
E|---------------------------------------------------------------------------|

Thats T.S.O.L.'s best song (in my opinion) from there album, "Divided We Stand". it is 
easy to play, and fun to jam to.
Pleazz Vote :D:D:D:D:D:D:D !!!!!!!! ~~~~~~ ":":GJXDFYSTG

************************************

| /   slide up
| \   slide down
| h   hammer-on
| p   pull-off
| ~   vibrato
| +   harmonic
| x   Mute note
| b   Bend
| pb  Pre-bend
| br  Bend release
| pbr Pre-bend release
| brb Bend release bend

************************************
Tap to rate this tab
 
# A B C D E F G H I J K L M N O P Q R S T U V W X Y Z