Tsol - Terrible People tab

---------------------------------------------------------------------------
TERRIBLE PEOPLE - T.S.O.L.
---------------------------------------------------------------------------
Tabbed by: Shinsen88
Email: shinsen88@yahoo.com

Tuning: EADGBe

Done by ear but I think it's close to 99% correct. Note that this is the
Version off of "Who's Screwin' Who?" rather than the one off of "Disappear,"
so there may be slight differences present.

INTRO (0:00-0:22) play x2
e|-------------------------------------------------|
B|-------------------------------------------------|
G|-7+-7+-7+-7+-7+-7+-7+-7+-7+-7+-7+-7+-7+-7+-7+-7+-|
D|-------------------------------------------------|
A|-------------------------------------------------|
E|-------------------------------------------------|

e|--------------------------|
B|--------------------------|
G|------10---------------10-|
D|-10-x-10-10-10-x-9-9-x-10-|
A|-10-x--8-10-10-x-9-9-x--8-|
E|--8-x-----8--8-x-7-7-x----|

VERSE 1 (0:23-0:34) play x2
e|-------------------------------------|
B|-------------------------------------|
G|-----------------10---------------10-|
D|------------10-x-10-10-10-x-9-9-x-10-|
A|----rest----10-x--8-10-10-x-9-9-x--8-|
E|-------------8-x-----8--8-x-7-7-x----|

VERSE 2 (0:35-0:47) play x2
e|--------------------------------------------|
B|-5---5--------------------------------------|
G|---7---7-------9------10----9-10------9---9-|
D|---------7-7/9---9/10----10------10-9---9---| let notes ring
A|--------------------------------------------|
E|--------------------------------------------|

CHORUS (0:48-1:00) play x2
e|------------------------------------|
B|------------------------------------|
G|----------------10---------------10-|
D|-12--------10-x-10-10-10-x-9-9-x-10-|
A|-12-(x12)--10-x--8-10-10-x-9-9-x--8-|
E|-10---------8-x-----8--8-x-7-7-x----|

1:01-1:13 REPEAT VERSE 2

END VERSE WITH (1:14-1:15)
e|----|
B|----|
G|----|
D|-12-|
A|-12-|
E|-10-|

INTERLUDE (1:16-1:28) play x4 (the "Disappear" version plays x2)
e|-------------------|
B|-------------------|
G|-------------------|
D|-6-6-6-6-5-5-3-3/5-|
A|-------------------|
E|-------------------|

BRIDGE (1:29-1:35)
e|---------------------------|
B|---------------------------|
G|---------------------------|
D|---------------------------|
A|---------------------------|
E|-REST------pick scrape-----|

1:36-2:00 REPEAT CHORUS

END ON (2:00-END)
e|-----|
B|-----|
G|-10~-|
D|-10~-|
A|--8~-|
E|-----|

| .  palm mute
| "  tremolo pick
| *  pinch harmonic
| ~  let note ring
| /  slide up
| \  slide down
| h  hammer-on
| p  pull-off
| v  vibrato
| +  natural harmonic
| x  mute note
Tap to rate this tab
 
# A B C D E F G H I J K L M N O P Q R S T U V W X Y Z