Song name
# A B C D E F G H I J K L M N O P Q R S T U V W X Y Z

Tsol - Flowers By The Door tab

T.S.O.L. - Flowers By The Door
Album : Change Today?
Tuning : Standard
Tabbed By : anarchoalan

INTRO
E--------------------------------------------------------------------------|
B-----2h3-2------2h3-2-----------------------------------------------------|
G----4-----4----2-----2----------------------------------------------------|
D---4-------4--2-------2---x4----------------------------------------------|
A--2----------0------------------------------------------------------------|
E--------------------------------------------------------------------------|

Verse : Palm Muted
E--------------------------------------------------------------------------|
B--------------------------------------------------------------------------|
G--444444444-2222222222----------------------------------------------------|
D--444444444-2222222222----------------------------------------------------|
A--222222222-0000000000----------------------------------------------------|
E--------------------------------------------------------------------------|
Thats all i got so far.
Tap to rate this tab
 
# A B C D E F G H I J K L M N O P Q R S T U V W X Y Z