Song name
# A B C D E F G H I J K L M N O P Q R S T U V W X Y Z

Tsol - Politics tab

. = staccato note
b = full bend
/ = slide out of downwards

Intro & Bridge: x4
|--------------------|
|--------------------|
|---7--5-------------|
|---7--5--7--5--7----|
|---5--3--7--5--7----|
|---------5--3--5----|

Verse: x5
|-------------------------------------------------|
|---.------.--------------------------------------|
|---5--5---7--7--9--9-9-9-9-9-9-9-9-9-9-9-9-9-9---|
|---5--5---7--7--9--9-9-9-9-9-9-9-9-9-9-9-9-9-9---|
|---3--3---5--5--7--7-7-7-7-7-7-7-7-7-7-7-7-7-7---|
|-------------------------------------------------|

Chorus part 1: x3
|----------------------------------------------|
|----------------------------------------------|
|--------------------11-11-11-11-11-11-11-11---|
|---9-9-9-9-9-9-9-9--11-11-11-11-11-11-11-11---|
|---9-9-9-9-9-9-9-9---9--9--9--9--9--9--9--9---|
|---7-7-7-7-7-7-7-7----------------------------|

Chorus part 2: x1
|---------------------------------------|
|---------------------------------------|
|--------------------.--.--.--.--.--.---|
|---9-9-9-9-9-9-9-9--7--7--7--7--7--7---|
|---9-9-9-9-9-9-9-9--7--7--7--7--7--7---|
|---7-7-7-7-7-7-7-7--5--5--5--5--5--5---|

Bridge x4

Verse x5

Chorus part 1 x3

Chorus part 2 x1

Bridge x4

Interlude: x1
|----------------------------------------------|
|---.------.-----12--12--12--12--12--12--12----|
|---5--5---7--7--14b-14b-14b-14b-14b-14b-14b---|
|---5--5---7--7--------------------------------|
|---3--3---5--5--------------------------------|
|----------------------------------------------|

Verse x4

Chorus part 1 x3

Chorus part 2 x1

End: x1
|------------|
|------------|
|------------|
|---9---9/---|
|---9---9/---|
|---7---7/---|
Tap to rate this tab
 
# A B C D E F G H I J K L M N O P Q R S T U V W X Y Z