Song name
# A B C D E F G H I J K L M N O P Q R S T U V W X Y Z

Tsol - Serious tab

-------------------------------------------------------------------------------
			      	Serious	- T.S.O.L
-------------------------------------------------------------------------------
Tabbed by: Ryan Armstrong
Email:

Tuning: Standard
 
Here's another for tsol from divided we stand, i'm not sure about the solo 
but its the closest i could get it.

 Intro
e|-----------------------|
B|-----------------------|Play
G|-----------------------| x4
D|-2-2-5-7-7-7-10-10-5-5-|
A|-2-2-5-7-7-7-10-10-5-5-|
E|-0-0-3-5-5-5--8--8-3-3-|

e|---------|
B|---------|End on this
G|---------|
D|-2-2-5-7-|
A|-2-2-5-7-|
E|-0-0-3-5-|
  Verse
e|-------------------------------|
B|-------------------------------|Listen to the song to get 
G|-------------------------------|the timeing right,
D|-x-x-x-x-x-x-x-x-x-x-x-x-x-x-x-|Play it from the 5th fret
A|-x-x-x-x-x-x-x-x-x-x-x-x-x-x-x-|
E|-x-x-x-x-x-x-x-x-x-x-x-x-x-x-x-|
  Chorus 
e|---------------------------------5-5-5-5-5-5-5-3-5-5-5-5-5-5-5-3-|
B|---------------------------------3-3-3-3-3-3-3-1-3-3-3-3-3-3-3-1-|
G|-7-7-7-7-7-7-7-7-9-9-9-9-9-9-9-9---------------------------------|play x2
D|-7-7-7-7-7-7-7-7-9-9-9-9-9-9-9-9---------------------------------|
A|-5-5-5-5-5-5-5-5-7-7-7-7-7-7-7-7---------------------------------|
E|-----------------------------------------------------------------|
   
e|---------|
B|---------|End on this
G|---------|
D|-2-2-5-7-|
A|-2-2-5-7-|
E|-0-0-3-5-|
  Verse
e|-------------------------------|
B|-------------------------------|Listen to the song to get 
G|-------------------------------|the timeing right,
D|-x-x-x-x-x-x-x-x-x-x-x-x-x-x-x-|Play it from the 5th fret
A|-x-x-x-x-x-x-x-x-x-x-x-x-x-x-x-|
E|-x-x-x-x-x-x-x-x-x-x-x-x-x-x-x-|
  Chorus 
e|---------------------------------5-5-5-5-5-5-5-3-5-5-5-5-5-5-5-3-|
B|---------------------------------3-3-3-3-3-3-3-1-3-3-3-3-3-3-3-1-|
G|-7-7-7-7-7-7-7-7-9-9-9-9-9-9-9-9---------------------------------|play x2
D|-7-7-7-7-7-7-7-7-9-9-9-9-9-9-9-9---------------------------------|
A|-5-5-5-5-5-5-5-5-7-7-7-7-7-7-7-7---------------------------------|
E|-----------------------------------------------------------------|
   
e|---------|
B|---------|End on this
G|---------|
D|-2-2-5-7-|
A|-2-2-5-7-|
E|-0-0-3-5-|
  solo Play x2
e|-7/9-9-9-9-9-9-10-10-9-7/8-8-8-8-8-8-10-10-8-|
B|-5/7-7-7-7-7-7-7-7/9-9-9-9-9-9---------------| 
G|---------------------------------------------| 
D|---------------------------------------------|
A|---------------------------------------------|
E|---------------------------------------------|
  Pre bridge
e|-----------------------|
B|-----------------------|Play
G|-----------------------| x4
D|-2-2-5-7-7-7-10-10-5-5-|
A|-2-2-5-7-7-7-10-10-5-5-|
E|-0-0-3-5-5-5--8--8-3-3-|

e|---------|
B|---------|End on this
G|---------|
D|-2-2-5-7-|
A|-2-2-5-7-|
E|-0-0-3-5-|
  Bridge
e|-------------------------------|
B|-------------------------------|Listen to the song to get 
G|-------------------------------|the timeing right,
D|-x-x-x-x-x-x-x-x-x-x-x-x-x-x-x-|Play it from the 5th fret
A|-x-x-x-x-x-x-x-x-x-x-x-x-x-x-x-|
E|-x-x-x-x-x-x-x-x-x-x-x-x-x-x-x-|
  Chorus 
e|---------------------------------5-5-5-5-5-5-5-3-5-5-5-5-5-5-5-3-|
B|---------------------------------3-3-3-3-3-3-3-1-3-3-3-3-3-3-3-1-|
G|-7-7-7-7-7-7-7-7-9-9-9-9-9-9-9-9---------------------------------|play x2
D|-7-7-7-7-7-7-7-7-9-9-9-9-9-9-9-9---------------------------------|
A|-5-5-5-5-5-5-5-5-7-7-7-7-7-7-7-7---------------------------------|
E|-----------------------------------------------------------------|
  Outro
e|-----------------------|
B|-----------------------|Play
G|-----------------------| x3
D|-2-2-5-7-7-7-10-10-5-5-|
A|-2-2-5-7-7-7-10-10-5-5-|
E|-0-0-3-5-5-5--8--8-3-3-|

e|---------|
B|---------|End on this
G|---------|
D|-2-2-5-7-|
A|-2-2-5-7-|
E|-0-0-3-5-|

Thats it hope you enjoy it i'll see ya later.

| /  slide up
| \  slide down
| h  hammer-on
| p  pull-off
| ~  vibrato
| +  harmonic
| x  Mute note
===============================================================================
Tap to rate this tab
 
# A B C D E F G H I J K L M N O P Q R S T U V W X Y Z