Song name
# A B C D E F G H I J K L M N O P Q R S T U V W X Y Z

Tsol - Red Shadows tab

============================================================================
............................................................................
                             TSOL-
                          Red Shadows
............................................................................
============================================================================


By:Fernando Amaya

:Standard tuning is fine:
(~)= (optional)
Intro
e|---------------------------------------------------------------------------|
B|-0-0-0-7----8-8-8-7-5-3----------------------------------------------------|
G|------------------------5-~ ~ ~--------------------------------------------|
D|---------------------------------------------------------------------------|
A|---------------------------------------------------------------------------|
E|---------------------------------------------------------------------------|

after intro (2x)
e|---------------------------------------------------------------------------|
B|-0-0-0-7----8-8-8-7-5-3---------0-0-0-7---8-8-10-8-7-----------------------|
G|---------------------------------------------------------------------------|
D|---------------------------------------------------------------------------|
A|---------------------------------------------------------------------------|
E|---------------------------------------------------------------------------|

chorus (4x)
e|---------------------------------------------------------------------------|
B|--0-0-0-7----8-8-8-7-5-3---------0-0-0-7---8-8-10-8-7----------------------|
G|---------------------------------------------------------------------------|
D|---------------------------------------------------------------------------|
A|---------------------------------------------------------------------------|
E|---------------------------------------------------------------------------|

after chorus(1x)
e|--------7-6-6-7-6-------------7-6-6-7--------------------------------------|
B|--5-7-8---------------5-7-8------------------------------------------------|
G|---------------------------------------------------------------------------|
D|---------------------------------------------------------------------------|
A|---------------------------------------------------------------------------|
E|---------------------------------------------------------------------------|

e|----------12-11-11-12-11-----------7-6-6-7---------------------------------|
B|-10-12-13------------------5-7-8-------------------------------------------|
G|---------------------------------------------------------------------------|
D|---------------------------------------------------------------------------|
A|---------------------------------------------------------------------------|
E|---------------------------------------------------------------------------|

repeat it all through the whole song, ir you can figure out the rythm then you
pretty much get the whole song. sorry if this bad its my second tab

-------------------------------------------------------------------------------

 
Tap to rate this tab
 
# A B C D E F G H I J K L M N O P Q R S T U V W X Y Z