Song name
# A B C D E F G H I J K L M N O P Q R S T U V W X Y Z

Tsol - Sedatives tab

-------------------------------------------------------------------------------
			      	Sedatives - T.S.O.L
-------------------------------------------------------------------------------
Tabbed by: Ryan Armstrong
Email:

Tuning: Standard
  
Another song from divided we stand i don't know solo 1 so you'll have to 
figure it out your self.

  Intro
e|-------------------------------|
B|-------------------------------|
G|-9-x-x-9-9-9-9-5-5-5-5---------|play 
D|-9-x-x-9-9-9-9-5-5-5-5-5-5-5-5-| x4
A|-7-7-7-7-7-7-7-3-3-3-3-5-5-5-5-|
E|-----------------------3-3-3-3-|
  Verse
e|-------------------------------|
B|-------------------------------|
G|-9-x-x-9-x-x-9-5-x-x-5---------|play
D|-9-x-x-9-x-x-9-5-x-x-5-5-x-x-5-| x4
A|-7-7-7-7-7-7-7-3-3-3-3-5-x-x-5-|
E|-----------------------3-3-3-3-|
  Chorus
e|-------------------------------------------------------------|
B|-------------------------------------------------------------|
G|-5-5-5-5-5-5-5-----------------------------------------------|
D|-5-5-5-5-5-5-5-5-5-5-5-5-5-5-9-9-9-9-9-9-9-10-10-10-12-12-12-|
A|-3-3-3-3-3-3-3-5-5-5-5-5-5-5-9-9-9-9-9-9-9-10-10-10-12-12-12-|
E|---------------3-3-3-3-3-3-3-7-7-7-7-7-7-7--8--8--8-10-10-10-|
  Pre verse
e|-------------------------------|
B|-------------------------------|
G|-9-x-x-9-9-9-9-5-5-5-5---------|play
D|-9-x-x-9-9-9-9-5-5-5-5-5-5-5-5-| x2
A|-7-7-7-7-7-7-7-3-3-3-3-5-5-5-5-|
E|-----------------------3-3-3-3-|
  Verse
e|-------------------------------|
B|-------------------------------|
G|-9-x-x-9-x-x-9-5-x-x-5---------|play
D|-9-x-x-9-x-x-9-5-x-x-5-5-x-x-5-| x4
A|-7-7-7-7-7-7-7-3-3-3-3-5-x-x-5-|
E|-----------------------3-3-3-3-|
  Chorus
e|----------------------------------------------------|
B|----------------------------------------------------|
G|-5-5-5-5-5-5-5--------------------------------------|
D|-5-5-5-5-5-5-5-5-5-5-5-5-5-5-9-9-9-9-9-9-9-10-10-10-|
A|-3-3-3-3-3-3-3-5-5-5-5-5-5-5-9-9-9-9-9-9-9-10-10-10-|
E|---------------3-3-3-3-3-3-3-7-7-7-7-7-7-7--8--8--8-|
  Continued
e|-------------------------------------------------------------|
B|-------------------------------------------------------------|
G|-5-5-5-5-5-5-5-----------------------------------------------|
D|-5-5-5-5-5-5-5-5-5-5-5-5-5-5-9-9-9-9-9-9-9-10-10-10-12-12-12-|
A|-3-3-3-3-3-3-3-5-5-5-5-5-5-5-9-9-9-9-9-9-9-10-10-10-12-12-12-|
E|---------------3-3-3-3-3-3-3-7-7-7-7-7-7-7--8--8--8-10-10-10-|
  Played under first solo but i don't know it
e|-------------------------------|
B|-------------------------------|
G|-9-x-x-9-9-9-9-5-5-5-5---------|play 
D|-9-x-x-9-9-9-9-5-5-5-5-5-5-5-5-| x4
A|-7-7-7-7-7-7-7-3-3-3-3-5-5-5-5-|
E|-----------------------3-3-3-3-|
  Solo 1
e|---------------------------------------------------------|
B|---------------------------------------------------------|
G|-9-9-9-9-9-9-9-11-11-11-11-11-11-11-12-12-12-12-12-12-12-|
D|---------------------------------------------------------|
A|-7-7-7-7-7-7-7--9--9--9--9--9--9--9-10-10-10-10-10-10-10-|
E|---------------------------------------------------------|
  Continued
e|----------------------|
B|----------------------|
G|-11-11-11-11-11-11-11-|
D|----------------------|
A|--9--9--9--9--9--9--9-|
E|----------------------|
  Continued
e|---------------------------------------------------------|
B|---------------------------------------------------------|
G|-9-9-9-9-9-9-9-11-11-11-11-11-11-11-12-12-12-12-12-12-12-|
D|---------------------------------------------------------|
A|-7-7-7-7-7-7-7--9--9--9--9--9--9--9-10-10-10-10-10-10-10-|
E|---------------------------------------------------------|
  Continued
e|--------------------------------------|
B|--------------------------------------|
G|-14-14-14-14-14-14-14-14-14-14-14-14\-|
D|--------------------------------------|
A|-12-12-12-12-12-12-12-12-12-12-12-12\-|
E|--------------------------------------|
  Chorus
e|-------------------------------------------------------------|
B|-------------------------------------------------------------|
G|-5-5-5-5-5-5-5-----------------------------------------------|
D|-5-5-5-5-5-5-5-5-5-5-5-5-5-5-9-9-9-9-9-9-9-10-10-10-12-12-12-|
A|-3-3-3-3-3-3-3-5-5-5-5-5-5-5-9-9-9-9-9-9-9-10-10-10-12-12-12-|
E|---------------3-3-3-3-3-3-3-7-7-7-7-7-7-7--8--8--8-10-10-10-|
  Pre verse
e|-------------------------------|
B|-------------------------------|
G|-9-x-x-9-9-9-9-5-5-5-5---------|play
D|-9-x-x-9-9-9-9-5-5-5-5-5-5-5-5-| x4
A|-7-7-7-7-7-7-7-3-3-3-3-5-5-5-5-|
E|-----------------------3-3-3-3-|
  Verse
e|-------------------------------|
B|-------------------------------|
G|-9-x-x-9-x-x-9-5-x-x-5---------|play
D|-9-x-x-9-x-x-9-5-x-x-5-5-x-x-5-| x4
A|-7-7-7-7-7-7-7-3-3-3-3-5-x-x-5-|
E|-----------------------3-3-3-3-|
  Chorus
e|----------------------------------------------------|
B|----------------------------------------------------|
G|-5-5-5-5-5-5-5--------------------------------------|
D|-5-5-5-5-5-5-5-5-5-5-5-5-5-5-9-9-9-9-9-9-9-10-10-10-|
A|-3-3-3-3-3-3-3-5-5-5-5-5-5-5-9-9-9-9-9-9-9-10-10-10-|
E|---------------3-3-3-3-3-3-3-7-7-7-7-7-7-7--8--8--8-|
  Continued
e|-------------------------------------------------------------|
B|-------------------------------------------------------------|
G|-5-5-5-5-5-5-5-----------------------------------------------|
D|-5-5-5-5-5-5-5-5-5-5-5-5-5-5-9-9-9-9-9-9-9-10-10-10-12-12-12-|
A|-3-3-3-3-3-3-3-5-5-5-5-5-5-5-9-9-9-9-9-9-9-10-10-10-12-12-12-|
E|---------------3-3-3-3-3-3-3-7-7-7-7-7-7-7--8--8--8-10-10-10-|
  Outro
e|-------------|
B|-------------|
G|-9-x-x-x-9-9-|
D|-9-x-x-x-9-9-|
A|-7-7-7-7-7-7-|
E|-------------|

Thats it hope you enjoyed it i'll see ya later.

| \  slide down
| h  hammer-on
| p  pull-off
| ~  vibrato
| +  harmonic
| x  Mute note
===============================================================================
Tap to rate this tab
# A B C D E F G H I J K L M N O P Q R S T U V W X Y Z