Song name
# A B C D E F G H I J K L M N O P Q R S T U V W X Y Z

Tsol - Tired Of Life tab

Intro:  (Bassist plays first)
--------------------------------------------------------------------|
--------------------------------------------------------------------|
--------------------------------------------------------------------|
--------------------------------------------------------------------|
---7---7---7---7---7---7---7---7---7---7---7---7---7---7---7---7----|
-5---5---5---5---5---5---5---5---5---5---5---5---5---5---5---5------|

Palm Mute________________________________________________________|


--------------------------------------------------------------------|
--------------------------------------------------------------------|
--------------------------------------------------------------------|
-7--------------------------------7---------------------------------|
-7------------LET RING------------7---------------------------------|
-5--------------------------------5---------------------------------|


Verse:
--------------------------------------------------------------------|
--------------------------------------------------------------------|
--------------------------------------------------------------------|
-7--------------------------------7---------------------------------|
-7------------LET RING------------7---------------------------------|
-5--------------------------------5---------------------------------|


--------------------------------------------------------------------|
--------------------------------------------------------------------|
--------------------------------------------------------------------|
-7--------------------------------7---------------------------------|
-7------------LET RING------------7---------------------------------|
-5--------------------------------5---------------------------------|


--------------------------------------------------------------------|
--------------------------------------------------------------------|
--------------------------------------------------------------------|
-7--------------------------------7---------------------------------|
-7------------LET RING------------7---------------------------------|
-5--------------------------------5---------------------------------|


--------------------------------------------------------------------|
--------------------------------------------------------------------|
--------------------------------------------------------------------|
-7--------------------------------7---------------------------------|
-7------------LET RING------------7---------------------------------|
-5--------------------------------5---------------------------------|


Chorus:
----5---5---5---5---3-3-3--0--3--0--3--0--|
-5---5----5---5-----3-3-3--0--3--0--3--0--|
------------------------------------------|
------------------------------------------|
------------------------------------------|
------------------------------------------|


----5---5---5---5---3-3-3--0--3--0--3--0--|
-5---5----5---5-----3-3-3--0--3--0--3--0--|
------------------------------------------|
------------------------------------------|
------------------------------------------|
------------------------------------------|


----5---5---5---5---3-3-3--0--3--0--3--0--|
-5---5----5---5-----3-3-3--0--3--0--3--0--|
------------------------------------------|
------------------------------------------|
------------------------------------------|
------------------------------------------|


----5---5---5---5---3-3-3--0--3--0--3--0--|
-5---5----5---5-----3-3-3--0--3--0--3--0--|
------------------------------------------|
------------------------------------------|
------------------------------------------|
------------------------------------------|


--------------------------------------------------------------------|
--------------------------------------------------------------------|
--------------------------------------------------------------------|
-7--------------------------------7---------------------------------|
-7------------LET RING------------7---------------------------------|
-5--------------------------------5---------------------------------|


Verse:
--------------------------------------------------------------------|
--------------------------------------------------------------------|
--------------------------------------------------------------------|
-7--------------------------------7---------------------------------|
-7------------LET RING------------7---------------------------------|
-5--------------------------------5---------------------------------|


--------------------------------------------------------------------|
--------------------------------------------------------------------|
--------------------------------------------------------------------|
-7--------------------------------7---------------------------------|
-7------------LET RING------------7---------------------------------|
-5--------------------------------5---------------------------------|


--------------------------------------------------------------------|
--------------------------------------------------------------------|
--------------------------------------------------------------------|
-7--------------------------------7---------------------------------|
-7------------LET RING------------7---------------------------------|
-5--------------------------------5---------------------------------|


--------------------------------------------------------------------|
--------------------------------------------------------------------|
--------------------------------------------------------------------|
-7--------------------------------7---------------------------------|
-7------------LET RING------------7---------------------------------|
-5--------------------------------5---------------------------------|


2nd Chorus:

Just go for it, improvise a solo, or just go double time if you like.
Tap to rate this tab
# A B C D E F G H I J K L M N O P Q R S T U V W X Y Z