Song name
# A B C D E F G H I J K L M N O P Q R S T U V W X Y Z

Tsol - Die For Me tab

Help us improve GuitareTab! Take a short survey!
Die For Me
TSOL
Tabbed by RizzoWashburn
Standard Tuning (EADGBe)

Intro:
      Am    C7
e|----0-----3------| 
B|----1-----5------| 
G|----2-----3------| 
D|----2-----5------| X2
A|----0-----3------| 
E|-----------------| 
 
     Am    C7
e|----0-0---3-3----| 
B|----1-1---5-5----| 
G|----2-2---3-3----| 
D|----2-2---5-5----| X2
A|----0-0---3-3----| 
E|-----------------| 

Verse:
     Am       C7       G        A
e|---00000000-33333333-33333333-55555555---| 
B|---11111111-55555555-33333333-55555555---| 
G|---22222222-33333333-44444444-66666666---| 
D|---22222222-55555555-55555555-77777777---| X5
A|---00000000-33333333-55555555-77777777---| 
E|---------------------33333333-55555555---| 

Chorus:
      Am    C7    G     A
e|----0-----3-----3-----5--| 
B|----1-----5-----3-----5--| 
G|----2-----3-----4-----4--| 
D|----2-----5-----5-----5--| X2
A|----0-----3-----5-----5--| 
E|----------------3-----5--| 

Outro:
e|-------------------| 
B|------1-------1----| 
G|--------2-------2--| 
D|----2-------2------|
A|--0-------0--------| 
E|-------------------| 
Related for Die For Me tab