Song name
# A B C D E F G H I J K L M N O P Q R S T U V W X Y Z

Tsopana Rave - Mila Re tab

Artist : Tsopana Rave                      
Song :   Mila Re                             
Tabber: Sam The Ripper
d_sporos@hotmail.com
d_samakos@yahoo.gr


***************************************
**(Note:Tsopana Rave is a Greek Band)**
***************************************


Intro
E-||----------------------||x4
B-||----------------------||
G-||----------------------||
D-||-----7---12--xx-7--x-2||
A-||-----7---12--xx-7--x-2||
E-||-----5---10--xx-5--x-0||

Pre-chorus
||--------------------|-------------------|-------------------|-------------------||
||--------------------|-------------------|-------------------|-------------------||
||--------------------|-------------------|-------------------|-------------------||
||--9--9--9-9-10-9----|9--9--9-9-10-9-xxxx|--9--9--9-9-12-9-xx|-9--9--9-9-10-9----||
||--9--9--9-9-10-9----|9--9--9-9-10-9-xxxx|--9--9--9-9-10-9-xx|-9--9--9-9-10-9----||
||--7--7--7-7-8 -7-xx-|7--7--7-7-8 -7-xxxx|--7--7--7-7-8 -7-xx|-7--7--7-7-8 -7-xx-||

Chorus

||----------------------||x4
||----------------------||
||----------------------||
||-----7---12--xx-7--x-2||
||-----7---12--xx-7--x-2||
||-----5---10--xx-5--x-0||

After-Chorus

||--------------------|-------------------|-------------------|-------------------||
||--------------------|-------------------|-------------------|-------------------||
||--------------------|-------------------|-------------------|-------------------||
||--9--9--9-9-10-9----|9--9--9-9-10-9-xxxx|--9--9--9-9-12-9-xx|-9--9--9-9-10-9----||
||--9--9--9-9-10-9----|9--9--9-9-10-9-xxxx|--9--9--9-9-10-9-xx|-9--9--9-9-10-9----||
||--7--7--7-7-8 -7-xx-|7--7--7-7-8 -7-xxxx|--7--7--7-7-8 -7-xx|-7--7--7-7-8 -7-xx-||

Pre-Chorus

||--------------------|-------------------|-------------------|-------------------||
||--------------------|-------------------|-------------------|-------------------||
||--------------------|-------------------|-------------------|-------------------||
||--9--9--9-9-10-9----|9--9--9-9-10-9-xxxx|--9--9--9-9-12-9-xx|-9--9--9-9-10-9----||
||--9--9--9-9-10-9----|9--9--9-9-10-9-xxxx|--9--9--9-9-10-9-xx|-9--9--9-9-10-9----||
||--7--7--7-7-8 -7-xx-|7--7--7-7-8 -7-xxxx|--7--7--7-7-8 -7-xx|-7--7--7-7-8 -7-xx-||

Chorus

||----------------------||x4
||----------------------||
||----------------------||
||-----7---12--xx-7--x-2||
||-----7---12--xx-7--x-2||
||-----5---10--xx-5--x-0||

After-Chorus

||--------------------|----------------||
||--------------------|----------------||
||--------------------|----------------||
||--9--9--9-9-10-9----|9--9--9-9-10-9--||
||--9--9--9-9-10-9----|9--9--9-9-10-9--||
||--7--7--7-7-8 -7-xx-|7--7--7-7-8 -7--||

(Try to make the sound after this by sliding your hands anywhere on the strings)

Pre-Chorus

||--------------------|----------------||
||--------------------|----------------||
||--------------------|----------------||
||--9--9--9-9-10-9----|9--9--9-9-10-9--||
||--9--9--9-9-10-9----|9--9--9-9-10-9--||
||--7--7--7-7-8 -7-xx-|7--7--7-7-8 -7--||

Chorus

||----------------------||x9
||----------------------||
||----------------------||
||-----7---12--xx-7--x-2||
||-----7---12--xx-7--x-2||
||-----5---10--xx-5--x-0||


!!That's it!!
Really simple

****************************************************************
**(I'm not sure about the chorus though,the notes are the same** 
**but i can't get the melody.                                 **       
**Play it like I wrote or follow the melody.)                 **                           
****************************************************************
For any corrections mail me...............

Have Fun!!!

Tap to rate this tab
# A B C D E F G H I J K L M N O P Q R S T U V W X Y Z