Song name
# A B C D E F G H I J K L M N O P Q R S T U V W X Y Z

Tsuji Shion - Sky tab

Sky chord-Tsuji Shion [Bleach New Ending Theme](Acoustic Guitar)Fingerstyle

Composed by Tsuji Shion
http://www.tsujishion.com/

Transcribed by Evan Liao
Youtube channel
http://www.youtube.com/user/zMagez#p/u/6/hdYSXse7V20


Key: Eb major [Capo 3]

Intro
e|0---3---------3-------3-----------0---3-----------------------------|
B|--------1-------3-1-3-------3P1-----------1-----1-0-----0-1-------1-|
G|--0---0---0---------------0-----0---0---0---0-------0H2-----------0-|
D|--------3---3-----------------------------3---3---------------0H2---|
A|3-----------------------3---------3-------------------------3-------|
E|----------------3---------------------------------3-----------------|



Verse
e|3-0-3-0-3-0-0-------0-0-------------0-1-0-----------------------|
B|--------------3-1-3-------3-1-----1---1---3-1-0---0-1-------1---|
G|------------------------0-------0-----2---------2-------------0-|
D|--------3-----------------------------3-----------------0H2-----|
A|3---------------------3-------3-----------------------3---------|
E|--------------3-------------------------------3-----------------|



e|3-0-3-0-3-0-0-------0-0-0-3-0-------0-1-0-----------------------|
B|--------------3-1-3---------------1---1---3-1-0-----0-1---------|
G|--------------------------------0-----2---------0H2-------0---0-|
D|--------3-------------------------------------------------------|
A|3---------------------3-------3-------------------------3---2---|
E|--------------3-----------------------1-------3-----------------|



Pre-Chorus
e|-------------3/5-3---------------------1-0-1-1-3---0-1-0-----------0-----|
B|-----0---1-------------0-1---0H1-0---0-1-----1---3---------1-3P1-3-------|
G|0H2--2---2-2---------0---0-0-------0---2-----2-----------0-------------0-|
D|-------------------------------------------------------------------------|
A|0--0---0-----------------------------------------------3-----3-------2---|
E|-------------------0-----0-------------1-----1---------------------------|


e|-------------3/5-3-----12*---------------1-0-1-0-1-0-1-3---3/5-3-3-----3-|
B|-----0---1-------------------12*---------1-----1-----1-0---0-----0---0---|
G|0H2--2---2-2---------0-------------12*---2-----2-----2-------------0-----|
D|-----------------------------------------0-----0-----0-------------------|
A|0--0---0-----------------------------------------------------------------|
E|-------------------0-------0-----0-----0-----------------3-------3---3---|


Chorus
e|3---------5-----------------0-1-0-----------0-1-0-------------------------|
B|----1-----1---1-3P1-3P1-3-1-1-----3-1-----1---1---3-1-0-----0-1-------1---|
G|--0---0---2-2---0---0---0-0-0-----------0-----2---------0H2-------------0-|
D|----2-------------------------------------------------------------0H2-----|
A|3---------------------------3---------3-------------------------3---------|
E|--------1-------3-----------------------------1-------3-------------------|


e|3---------5-----------------0-1-0-----------0-1-0-------------------------|
B|----1-----1---1-3P1-3P1-3-1-1-----3-1-----1---1---3-1-0-----0-1-------1---|
G|--0---0---2-2---0---0---0-0-0-----------0-----2---------0H2-------------0-|
D|----2-------------------------------------------------------------0H2-----|
A|3---------------------------3---------3-------------------------3---------|
E|--------1-------3-----------------------------1-------3-------------------|


e|3---------5-----------------0-1-0-----------0-1-0-------------------------|
B|----1---------1-3P1-3P1-3-1-------3-1-----1---1---3-1-0-----0-1-------1---|
G|------0-----2---------------------------0-----2---------0H2-----------0---|
D|--2---------------------------------------------------------------0H2-----|
A|3---------------------------3---------3-------------------------3---------|
E|--------1-------3-----------------------------1-------3-------------------|


Thank you Evan Liao for this tab :)
Tap to rate this tab
 
# A B C D E F G H I J K L M N O P Q R S T U V W X Y Z