Song name
# A B C D E F G H I J K L M N O P Q R S T U V W X Y Z

Tsuji Shion - Sky Chord Otona Ni Naru Kun He tab

SKY CHORD Otona Ni Naru Kun He
Shion Tsuji
Key: Eb
Arranged by Mike Tran (weksa)

http://www.youtube.com/watch?v=V7TBNjiUX0g

Note: This tab is slightly simplified. My fingers are chubby,
      and I don't have long nails, so I often hit other strings
      while picking, which gives the song a fuller sound. I may
      also play hammer-ons and pull-offs randomly. It's hard to
      tab because I don't play consistently.

Note: This tab is for the short TV version that's about 1:30 long.

Note: Tab notations are at the bottom.


Play relative to capo 3

Intro:
   C       F       G      C           C       F         G      C     ^
e|-0---3-------3--------------------|-0---3---------3----------------------|
B|---------1-------0h1-3*-1-----3-1-|---------1---------0-1-3*-1---1-------|
G|---0---0---0---0-0----------0-0---|---0---0---0h2---0--------0-------0---|
D|--------------------------2-------|--------------------------2-----------|
A|-3----------------------3---------|-3------------------------3-----------|
E|---------1-------3----------------|---------1---------3------------------|


Verse:
   C   v   F   v     G   v C     v     C   v   F   v   G   v C     ^
e|---3-0-3-0-3-0-3---------0---------|-------0-1-0-------------------------|
B|---1-1---1---1-----3-1-3-------3-1-|-----1---1---3-1-0-----1---1---------|
G|-----0-------0---0-----0-----0-0---|---0-0-------0-----2-4---------0-----|
D|-----2-----------------0---2---2---|-----2-------0-------0---------------|
A|-3-----------------------3---------|-3---------------------3-------------|
E|---------1---------3---------------|---------1-------3-------------------|


   C   v   F   v     G   v C     v     C   v   F   v   G   v C     ^
e|---3-0-3-0-3-0-3---------0-----3-0-|-------0-1-0-------------------------|
B|---1-1---1---1-----3-1-3-------1---|-----1---1---3-1-0-----1---1---------|
G|-----0-------0---0-----0-----0-0---|---0-0-------0-----2-4---------0-----|
D|-----2-----------------0---2---2---|-----2-------0-------0---------------|
A|-3-----------------------3---------|-3---------------------3-----2-------|
E|---------1---------3---------------|---------1-------3-------------------|


Prechorus:
   Am  v       v    Em   V           v     F     v         v   G   v         v
e|-------------3/5-3---5-5---------------|-0h1-0-1-1-1/3---0-1-0---0---------------|
B|-----0---1---1---3---3-3-1h3-3/5-3-3-1-|-1---1-1-------3-0-------0-3p1-3/5-3-1---|
G|---2-2-2---2-2---------0-0---------0---|-------0---------0-------0---------0-----|
D|-----2-------2---------------------0---|-------0---------------------------0-----|
A|-0-------------------------------------|-----------------------------------------|
E|-------------------0-------------------|-1-------------------3-------------------|


   Am  v       v    Em   V           v     F     v       v G    ^       v
e|-------------3/5-3---5-5---------------|-0h1-0-1-0-1-0-1-3*-5---5---3-3----------|
B|-----0---1---1---3---3-3-1h3-3/5-3-3-1-|-1---1-1-1-1-1-1-3*-3---3---3-3----------|
G|---2-2-2---2-2---------0-0---------0---|-------0-------0--------------0-0--------|
D|-----2-------2---------------------0---|-------0-------0--------------0----------|
A|-0-------------------------------------|-----------------------------------------|
E|-------------------0-------------------|-1---------1-----3*-----3----------------|


Chorus:
   C   v     F     v   G       v   C   v       C   v   F   v   G   v C
e|-3-----------5-------------------0-1-0-----|-------0-1-0----------------0h1-0-----|
B|---1-1-------1---1---3p1-3p1-3-1-----1-3p1-|-----1---1---3-1-0-----1----------3-1-|
G|-----0-0h2-------3-0-0-------0-------0-----|---0-0-------0-----2-4----------------|
D|-----2-----------x-----------0-------2-----|-----2-------0-------0----------------|
A|-3---------------2---------------3---------|-3------------------------3-----------|
E|-----------1---------3---------------------|---------1-------3--------------------|


   C   v     F     v   G       v   C   v       C   v   F   v   G   v C     ^
e|-3-----------5-------------------0-1-0-----|-------0-1-0-------------------------|
B|---1-1-------1---1---3p1-3p1-3-1-----1-3p1-|-----1---1---3-1-0-----1---1---------|
G|-----0-0h2-------3-0-0-------0-------0-----|---0-0-------0-----2-4---------0-----|
D|-----2-----------x-----------0-------2-----|-----2-------0-------0---------------|
A|-3---------------2---------------3---------|-3---------------------3-------------|
E|-----------1---------3---------------------|---------1-------3-------------------|


Coda:                                               slow down
   C         F       G           C           C       F       G     C
e|-3-----------5-----------------0-1-0-----|-------0-1p0---------------------------|
B|-----1---------1---3p1-3p1-3-1-------3p1-|-----1-------3-1-0-----1---------------|
G|---0---0h2-------0-----------------------|---0---------------2-4-0---------------|
D|-----------------------------------------|-----------------------2---------------|
A|-3-----------------------------3---------|-3---------------------3---------------|
E|-----------1-------3---------------------|---------1-------3---------------------|


/  slide up
\  slide down
h  hammer-on
p  pull-off
*  staccato
^  Tap / slap
v  down-strum

Ending solo at around 3:53 from the full version of the song

e|-----11---------------------------|----11-----------------------|
B|-/11----11-9-8-9-----8---8-9-9/11-|-11----11-9-8-9---8---9-8----|
G|-----------------------8----------|--------------------8-----8--|
D|----------------------------------|-----------------------------|
A|----------------------------------|-----------------------------|
E|----------------------------------|-----------------------------|

e|-----11---------------------------|----11-----------------------|
B|-/11----11-9-8-9---9-8---8-9-9/11-|-11----11-9-8-9---8---9-8----|
G|-----------------------8----------|--------------------8--------|
D|----------------------------------|-----------------------------|
A|----------------------------------|-----------------------------|
E|----------------------------------|-----------------------------|
Tap to rate this tab
 
# A B C D E F G H I J K L M N O P Q R S T U V W X Y Z