Song name
# A B C D E F G H I J K L M N O P Q R S T U V W X Y Z

Tsunami Bomb - Mushy Love Song tab

This is the tab for mushy love song by tsunami bomb
im just going to tall the CHORDS the rythm is easy this is 100% right
intro:

e----------------------------------------------------------------------|
b----------------------------------------------------------------------|
g-8---5--3-----8--3----------------------------------------------------|
d-8---5--3--6--8--3----------------------------------------------------|
a-6---3--1--6--6--3----------------------------------------------------|
e-----------4----------------------------------------------------------|
play this with two palm mutes at the begining them just strum the chord

chorus: x2

e---------------------------------------------------------------------|
b---------------------------------------------------------------------|
g--8-----3------------------------------------------------------------|
d--8--6--3------------------------------------------------------------|
a--6--6--1------------------------------------------------------------|
e-----4---------------------------------------------------------------|
verse to play intro w/o palm mutes x2

e----------------------------------|
b----------------------------------|
g--8--3--5-------------------------|
d--8--3--5--3----------------------|
a--6--1--6--3----------------------|
e-----------1----------------------|
first time through w/ palm mutes other 4 times just strum
play verse 2 again one time then play chorus
now for the outro
e----------------------------------------|
b----------------------------------------|
g--8-----3--8-----3--5--7----------------|
d--8--6--3--8--6--3--5--7----------------|
a--6--6--1--6--6--1--3--5----------------|
e-----4--------4-------------------------|

again this is just the CHORDS to the song i think you should be able to figure out the 
your selves
that's it enjoy have fun playing
Tap to rate this tab
 
# A B C D E F G H I J K L M N O P Q R S T U V W X Y Z