Guitaretab - guitar tabs
Song name
# A B C D E F G H I J K L M N O P Q R S T U V W X Y Z

Tsunami Bomb - Swimming Through Molasses tab

E]------------------------------------------------------------|
B]------------------------------------------------------------|
G]------------------------------------------------------------|
D]--5------5-----5------5-----5------5-----5------5-----------|
A]--7--7-7---7-7-6--6-6---6-6-5--5-5---5-5-4--4-4---4-4-------|
E]------------------------------------------------------------|
[ Tab from: http://www.guitaretab.com/t/tsunami-bomb/50177.html ]
E]------------------------------------------------------------|
B]------------------------------------------------------------|
G]------------------------------------------------------------|
D]--2-2-2-2-2--5--5-5-5-5-5--5--7-7-7-7-7--5--8-8-8-8-8--5----|
A]--0-0-0-0-0-----3-3-3-3-3-----5-5-5-5-5-----6-6-6-6-6-------|
E]------------------------------------------------------------|

E]------------------------------------------------------------|
B]------------------------------------------------------------|
G]------------------------------------------------------------|
D]--7-7-777-8-8-888-9-9-999---7-5-4-5-5/4-5-------------------|
A]--5-5-555-6-6-666-7-7-777-----------------5-7\1-------------|
E]------------------------------------------------------------|
Related for Swimming Through Molasses tab