Song name
# A B C D E F G H I J K L M N O P Q R S T U V W X Y Z

Tsunami Bomb - I Bought You tab

Help us improve GuitareTab! Take a short survey!
I Bought You--Tsunami Bomb 

E|-------------------------------| x2
B|-------------------------------|
G|-------------------------------|
A|3-3-3-3-3--3-3-3--3-3-3--3-3-3-|
D|0-0-0-0-0--1-1-1--0-0-0--1-1-1-|
E|0-0-0-0-0--0-0-0--0-0-0--0-0-0-|

E|---------------------------|
B|---------------------------|
G|---------------------------|
A|0-0-2-2-3-3-2-2-0-0-----0-0|
D|--------------------3-3----|
E|---------------------------|

E|-------------------------------| x4
B|-------------------------------|
G|-------------------------------|
A|3-3-3-3-3--3-3-3--3-3-3--3-3-3-|
D|0-0-0-0-0--1-1-1--0-0-0--1-1-1-|
E|0-0-0-0-0--0-0-0--0-0-0--0-0-0-|

E|----------------|
B|----------------| throughout verse 
G|2-3-3/5--3------|
A|-0-0----0-0-----|
D|----------------|
E|----------------|

Tabbed by gamebuster89@aol.com with help from guitar teacher
Related for I Bought You tab